Oops, an error
Loading. Please wait.

Prófugos Tab

version 1
version 1

Whole song

Interactive

53,719 views 78 this week
1 commentread comment
1 2 3 4 5
x 3
add to favorites
launch autoscroll
font size
0
reset
how to read this tab
guitar tuner
Autoscroll
slow
fast
+/-
esc
set tempo
stop
Help us to improve Ultimate-Guitar.com Take our survey!
×
Author
Banda: Soda Stereo
cancion: Profugos
Transcrito por: Carlos Ramirez
Afinacion: EADGBe


INTRO:
    F#sus4
e|---2-|--------------------------      -----------------------|
B|---2-|--------------------------      -----------------------|
G|---4-|-------------------------- (2)  -----------6-4--0-2----| (2)
D|---4-|---------------6-4--0--2--      --5-4-2-4--------------|
A|---4-|-----5-4-2-4--------------      -0---------------------|
E|---2-|--0-----------------------      -----------------------|

VERSO:
   Gmaj9                     D    Gmaj9                               Bm
e|---0-----------------------5--5---0---------12/14-------------------7--|
B|---10----------------------7--5---10----10--------------------------7--|
G|---11----------------------7--7---11--------------------------------7--|
D|---9-----------------------7--7---9---------------------------------9--|
A|---10----------------------5--5---10--------------------------------9--|
E|---0------------------------------0---------------------------------7--|
        somos complices los 2         al menos se que huyo porque amo
      como un efecto residual         yo siempre tomare el desvio

 Gmaj9                                D
e|------------------------------------5---5----5--5----------------------|
B|------10---------10--8-7-5----------7---5----8--7----------------------|
G|----11---------11-------------------7---7----7--7----------------------|
D|---9--------------------------------7---7----7--7----------------------|
A|-10---------------------------------5---5----5--5----------------------|
E|-----------------------------------------------------------------------|
          necesito          distension
          tus ojos  nunca mentiran
   Gmaj9                                F#sus4
e|---------------------------------------2------------------------------|
B|---------------------------------------2------------------------------|
G|----------11-11-----------11-11--------4------------------------------|
D|-------9-9-----9-9-----9-9-------------4------------------------------|
A|-10-10------------10-10----------------4------------------------------|
E|---------------------------------------2------------------------------|
      estar    asi       despierto         es un delirio de condenado
     pero        ese ruido blanco          es una alarma en mis oidos

  intro, verso


CORO:
    D          Am       Em              Bm
e|--5----------5---------7--------------7--------------------------------|
B|--7----------5---------8--------------7--------------------------------|
G|--7----------5---------9--------------7--------------------------------|
D|--7----------7---------9--------------9--------------------------------|
A|--5----------7---------7--------------9--------------------------------|
E|-------------5------------------------7--------------------------------|
      no seas tan cruel     no busques mas pretextos

    D         Am         Em                 G    Cmaj7
e|--5---------5----------7------------------7-----7----------------------|
B|--7---------5----------8------------------8-----8----------------------|
G|--7---------5----------9------------------7-----10---------------------|
D|--7---------7----------9------------------9-----11---------------------|
A|--5---------7----------7------------------10---------------------------|
E|------------5----------------------------------------------------------|
      no seas tan cruel     siempre seremos profugos


e|-----------------------------------------------------------------------|
B|-------7--------7----7-------7----7-------7----7-------7---------------|
G|---------9----9---9----9---9---9----9---9---9----9---9---9-------------|
D|-----------9-------------9------------7------------7-------------------|
A|-----------------------------------------------------------------------|
E|-----------------------------------------------------------------------|
    los dos


intro,verso, coro


SOLO:
e|-------6/15--13\----------------------------10-8-------------------------|
B|-------6/15-------------------------------8-----11-10--------------------|
G|------------------0-3-0-0-0-0-0-3-0-0----------------10------------------|
D|--------------------------------------3~---------------10~---------------|
A|--7\---------------------------------------------------------------------|
E|-------------------------------------------------------------------------|

e|---------------------------------6-6-6--7-7-8---------------------|
B|---------------------------------3-3-3--4-4-5---------------------|
G|--0-3-2-0-2-0------------0-2-3------------------------------------|
D|-------------3-----0-2-3------------------------------------------|
A|------------------------------------------------------------------|
E|------------------------------------------------------------------|


 intro,luego..

     D                          Am
e|---------------------------------7----------|
B|-------7-----------------------5------------|
G|-----7-----------------------5--------------|
D|---7----------------------------------------|
A|--------------------------------------------|
E|--------------------------------------------|
   ven...       no seas tan   cruel...(sigue coro)


FINAL:
    Em                G             D    Am  Em  Bm    D     Am
e|--7-----------------7----10--7----5----5---7----7----5-----5------------|
B|--8-----------------8----8---8----7----5---8----7----7-----5------------|
G|--9-----------------7----7---7----7----5---9----7----7-----5------------|
D|--9-----------------9----9---9----7----7---9----9----7-----7------------|
A|--7-----------------10------------5----7---7----9----5-----7------------|
E|---------------------------------------5--------7----------5------------|
  ....siempre seremos pro - fu    - gos

    Em                G             D    Am  Em  Bm    D     Am     Em
e|--7-----------------7----10--7----5----5---7----7----5-----5------7-----|
B|--8-----------------8----8---8----7----5---8----7----7-----5------8-----|
G|--9-----------------7----7---7----7----5---9----7----7-----5------9-----|
D|--9-----------------9----9---9----7----7---9----9----7-----7------9-----|
A|--7-----------------10------------5----7---7----9----5-----7------7-----|
E|---------------------------------------5--------7----------5------------|
  ....siempre seremos pro - fu    - gos

  

    Gmaj7           Cmaj7  Gmaj7 Cmaj7
e|---7---------------7-------7----7----|
B|---7---------------8-------7----8----|
G|---7---------------9-------7----9----| etc.........
D|---9---------------10------9----10---|
A|---10----------------------10--------|
E|-------------------------------------|
        siempre seremos....

Obs- (~) representa al uso del vibrato de la guitarra.
Suggest correction
Give kudos to tab author, rate the tab!
1 2 3 4 5
comments
print report bad tab
1 comment total.
0 reply
kurko26 10 Oct 03, 2008 11:58 PM

Muy buen tab kpo!!

guest
You may want to rate the tab now too:
select rating
Wanna post a correction for this tab? Suggest correction