Oops, an error
Loading. Please wait.

Si No Fuera Por Bass Tab

version 1
version 1

Whole song

Interactive

193 views 1 this week
no commentswrite comment
1 2 3 4 5
3 more votes to show rating
add to favorites
launch autoscroll
font size
0
reset
guitar tuner
Autoscroll
slow
fast
+/-
esc
set tempo
stop
Help us to improve Ultimate-Guitar.com Take our survey!
×
Hola amigos, transcribo otro viejo tema que tocaron en la gira MVV.
Salud !!!!


INTRO

G------------------------------------
D------------------------------------     (x2)
A-------5-----------3232------5------
E--333----5-5--111-------333-----5-5-

Verso 1

G--------------------------
D--------------------------      (x8)
A------5-------------3232--
E--333----5-5---111--------

Ohhhhhhh oh ohhhhhhhh

G-------------------------
D-------------------------
A---666666666--333333333--
E-------------------------

Verso II

G-----------------------
D-----------------------          (x4)
A------5------8888-6----
e--333---5-5---------8--

Puente

G--------------------------
D--------------------------       (x12)
A--------5-55--8-88--------
E--3-33--------------8-88--

Ohhhh oh ohhhhhhhh

G-------------------------
D-------------------------
A---666666666--333333333--
E-------------------------

Verso III

G------------------------
D------------------------          (x4)
A------5-------8888-6----
E--333---5-5----------8--

Puente II

G-----------------------
D-----------------------
A-----------------------           (x8)
E--3333-0000-1111-5555--

Verso IV

G------------------------------------------------------------------------
D------------------------------------------------------------------------
A-5-55-7-77-3-33-5-55-------------------10101010-77777-33333-------------
E---------------------55555-77777-88888----------------------55555-33333-

Verso V

G------------------------
D------------------------          (x8)
A------5-------8888-6----
E--333---5--5---------8--

G--------------------------
D--------------------------        (x8)
A--------5-55--8-88--------
E--3-33--------------8-88--

G---------------------------
A---------------------------
A-----------5-5--8-8--------
E--3-3------------------8-8-

G-------------------------
A-------------------------
A-------5555--8888--------
E--3333-------------888-8-


FINAL

G---------------------------
D---------------------------
A-------5-5-------3232------
E--3-3-------111--------3~~-


ADRIAN DE LUCA
hadl72@
Suggest correction
Give kudos to tab author, rate the tab!
1 2 3 4 5
comments
print report bad tab
guest
You may want to rate the tab now too:
select rating
Wanna post a correction for this tab? Suggest correction