Oops, an error
Loading. Please wait.

Signos Acoustic tab

version 5
version 5

Whole song

Interactive

16 views 1 this week
no commentswrite comment
1 2 3 4 5
3 more votes to show rating
add to favorites
×
Save as Personal and add changes to this tab that will be seen only by you. Learn more ›
×
You can save this tab as Personal to edit and correct it or add notes. All changes will be seen only by you. Learn more »
launch autoscroll
font size
0
reset
how to read this tab
guitar tuner
backing track
0:00
0:00
edit
Autoscroll
slow
fast
+/-
esc
set tempo
stop
[Intro]

     Am            G6                       G6         Fmaj7
e|| -0-----0--0-0--0--|(0)--0-0-0-0-0-0-0-|-0----0--0--0--|(0)--0-0-0--3-0-3-0-|
B|| -1--X--1--0-1--5--|(5)--5-5-5-5-5-5-5-|-3--X-3--3--1--|(1)--1-1-1--1-1-1-1-|
G||O-2--X--2--2-2--4--|(4)--4-4-4-4-4-4-4-|-4--X-5--4--2--|(2)--2-2-2--2-2-2-2-|
D||O-2--X--2--2-2--5--|(5)--5-5-5-5-5-5-5-|-5--X-5--5--3--|(3)--3-3-3--3-3-3-3-|
A|| -0--X--0--0-0-----|-------------------|----X----------|--------------------|
E|| ------------------|-------------------|---------------|--------------------|
      X: rasgueo       (x): mantener nota desde compás anterior
         apagado

   Am            G6                       A#6b5      FM7add6
e|-0-----0--0-0--0--|(0)--0-0-0-0-0-0-0-|-0----8--6--0--|(0)-0-0-0---------- ||
B|-1--X--1--0-1--5--|(5)--5-5-5-5-5-5-5-|-8--X-8--8--3--|(3)-3-3-3---------- ||
G|-2--X--2--2-2--4--|(4)--4-4-4-4-4-4-4-|-7--X-7--7--2--|(2)-2-2-2----------O||
D|-2--X--2--2-2--5--|(5)--5-5-5-5-5-5-5-|-8--X-8--8--3--|(3)-3-3-3--2h3-2h3-O||
A|-0--X--0--0-0-----|-------------------|----X----------|------------------- ||
E|------------------|-------------------|---------------|------------------- ||(x2)


[Verso 1]

   Am          G6                    G6        Fmaj7
e|-0--0-0--0-0-0--|--0-0-0--0-0-0--|-0--0-0-0--0--|--0-0-0--0-0-0--|
B|-1--1-1--0-1-5--|--5-5-5--5-5-5--|-3--3-3-3--1--|--1-1-1--1-1-1--|
G|-2--2-2--2-2-4--|--4-4-4--4-4-4--|-4--4-5-4--2--|--2-2-2--2-2-2--|
D|-2--2-2--2-2-5--|--5-5-5--5-5-5--|-5--5-5-5--3--|--3-3-3--3-3-3--|
A|-0--0-0--0-0-0--|----------------|--------------|----------------|
E|----------------|----------------|--------------|----------------|

   Am          G6                    A#6b5     FM7add6
e|-0--0-0--0-0-0--|--0-0-0--0-0-0--|-0--0-0-0--0--|--0-0-0--0-0-0--|
B|-1--1-1--0-1-5--|--5-5-5--5-5-5--|-8--8-8-8--3--|--3-3-3--3-3-3--|
G|-2--2-2--2-2-4--|--4-4-4--4-4-4--|-7--7-7-7--2--|--2-2-2--2-2-2--|
D|-2--2-2--2-2-5--|--5-5-5--5-5-5--|-8--8-8-8--3--|--3-3-3--3-3-3--|
A|-0--0-0--0-0-0--|----------------|--------------|----------------|
E|----------------|----------------|--------------|----------------|


[Instrumental]

   Am          D                     Am        D            C
e|-0--0-0--0-0-2--|--2-2-2--2-2-2--|-0--0-0-0--2--|--2-2-2--0-0-0--|
B|-1--1-1--0-1-3--|--3-3-3--3-3-3--|-1--1-1-1--3--|--3-3-3--1-1-1--|
G|-2--2-2--2-2-2--|--2-2-2--2-2-2--|-2--2-2-2--2--|--2-2-2--0-0-0--|
D|-2--2-2--2-2-0--|--0-0-0--0-0-0--|-2--2-2-2--0--|--0-0-0--2-2-2--|
A|-0--0-0--0-0----|----------------|-0--0-0-0-----|---------3-3-3--|
E|----------------|----------------|--------------|----------------|


[Verso 2]

   Am          G6                    G6        Fmaj7
e|-0--0-0--0-0-0--|--0-0-0--0-0-0--|-0--0-0-0--0--|--0-0-0--0-0-0--|
B|-1--1-1--0-1-5--|--5-5-5--5-5-5--|-3--3-3-3--1--|--1-1-1--1-1-1--|
G|-2--2-2--2-2-4--|--4-4-4--4-4-4--|-4--4-5-4--2--|--2-2-2--2-2-2--|
D|-2--2-2--2-2-5--|--5-5-5--5-5-5--|-5--5-5-5--3--|--3-3-3--3-3-3--|
A|-0--0-0--0-0-0--|----------------|--------------|----------------|
E|----------------|----------------|--------------|----------------|

   Am          G6                    A#6b5     FM7add6
e|-0--0-0--0-0-0--|--0-0-0--0-0-0--|-0--0-0-0--0--|--0-0-0--0-0-0--|
B|-1--1-1--0-1-5--|--5-5-5--5-5-5--|-8--8-8-8--3--|--3-3-3--3-3-3--|
G|-2--2-2--2-2-4--|--4-4-4--4-4-4--|-7--7-7-7--2--|--2-2-2--2-2-2--|
D|-2--2-2--2-2-5--|--5-5-5--5-5-5--|-8--8-8-8--3--|--3-3-3--3-3-3--|
A|-0--0-0--0-0-0--|----------------|--------------|----------------|
E|----------------|----------------|--------------|----------------|


[Coro]

   Am          D                     Am        D            C
e|-0--0-0--0-0-2--|--2-2-2--2-2-2--|-0--0-0-0--2--|--2-2-2--0-0-0--|
B|-1--1-1--0-1-3--|--3-3-3--3-3-3--|-1--1-1-1--3--|--3-3-3--1-1-1--|
G|-2--2-2--2-2-2--|--2-2-2--2-2-2--|-2--2-2-2--2--|--2-2-2--0-0-0--|
D|-2--2-2--2-2-0--|--0-0-0--0-0-0--|-2--2-2-2--0--|--0-0-0--2-2-2--|
A|-0--0-0--0-0----|----------------|-0--0-0-0-----|---------3-3-3--|
E|----------------|----------------|--------------|----------------|

   Am          D                     Em               D      C
e|-0--0-0--0-0-2--|--2-2-2--2-2-2--|-0--0-0--0-0-0--|-2-2-2--0-0-0--|
B|-1--1-1--0-1-3--|--3-3-3--3-3-3--|-0--0-0--0-0-0--|-3-3-3--1-1-1--|
G|-2--2-2--2-2-2--|--2-2-2--2-2-2--|-0--0-0--0-0-0--|-2-2-2--0-0-0--|
D|-2--2-2--2-2-0--|--0-0-0--0-0-0--|-2--2-2--2-2-2--|-0-0-0--2-2-2--|
A|-0--0-0--0-0----|----------------|-2--2-2--2-2-2--|--------3-3-3--|
E|----------------|----------------|-0--0-0--0-0-0--|---------------|

   Fmaj7
e|-0-0-0-0-0-0-0-0-|-0-0-0-0-0-0-0-0-|-0-0-0-0-0-0-0-0-|-0-0-0-0-0-0-0-0-|
B|-1-1-1-1-1-1-1-1-|-1-1-1-1-1-1-1-1-|-1-1-1-1-1-1-1-1-|-1-1-1-1-1-1-1-1-|
G|-2-2-2-2-2-2-2-2-|-2-2-2-2-2-2-2-2-|-2-2-2-2-2-2-2-2-|-2-2-2-2-2-2-2-2-|
D|-3-3-3-3-3-3-3-3-|-3-3-3-3-3-3-3-3-|-3-3-3-3-3-3-3-3-|-3-3-3-3-3-3-3-3-|
A|-----------------|-----------------|-----------------|-----------------|
E|-----------------|-----------------|-----------------|-----------------|


[Instrumental]

   Am            G6                       G6         Fmaj7
e|-0-----0--0-0--0--|(0)--0-0-0-0-0-0-0-|-0----0--0--0--|(0)--0-0-0--3-0-3-0-|
B|-1--X--1--0-1--5--|(5)--5-5-5-5-5-5-5-|-3--X-3--3--1--|(1)--1-1-1--1-1-1-1-|
G|-2--X--2--2-2--4--|(4)--4-4-4-4-4-4-4-|-4--X-5--4--2--|(2)--2-2-2--2-2-2-2-|
D|-2--X--2--2-2--5--|(5)--5-5-5-5-5-5-5-|-5--X-5--5--3--|(3)--3-3-3--3-3-3-3-|
A|-0--X--0--0-0-----|-------------------|----X----------|--------------------|
E|------------------|-------------------|---------------|--------------------|

   Am            G6                       A#6b5      FM7add6
e|-0-----0--0-0--0--|(0)--0-0-0-0-0-0-0-|-0----8--6--0--|(0)-0-0-0----------|
B|-1--X--1--0-1--5--|(5)--5-5-5-5-5-5-5-|-8--X-8--8--3--|(3)-3-3-3----------|
G|-2--X--2--2-2--4--|(4)--4-4-4-4-4-4-4-|-7--X-7--7--2--|(2)-2-2-2----------|
D|-2--X--2--2-2--5--|(5)--5-5-5-5-5-5-5-|-8--X-8--8--3--|(3)-3-3-3--2h3-2h3-|
A|-0--X--0--0-0-----|-------------------|----X----------|-------------------|
E|------------------|-------------------|---------------|-------------------|


[Verso 3]

   Am          G6                    G6        Fmaj7
e|-0--0-0--0-0-0--|--0-0-0--0-0-0--|-0--0-0-0--0--|--0-0-0--0-0-0--|
B|-1--1-1--0-1-5--|--5-5-5--5-5-5--|-3--3-3-3--1--|--1-1-1--1-1-1--|
G|-2--2-2--2-2-4--|--4-4-4--4-4-4--|-4--4-5-4--2--|--2-2-2--2-2-2--|
D|-2--2-2--2-2-5--|--5-5-5--5-5-5--|-5--5-5-5--3--|--3-3-3--3-3-3--|
A|-0--0-0--0-0-0--|----------------|--------------|----------------|
E|----------------|----------------|--------------|----------------|

   Am          G6                    A#6b5     FM7add6
e|-0--0-0--0-0-0--|--0-0-0--0-0-0--|-0--0-0-0--0--|--0-0-0--0-0-0--|
B|-1--1-1--0-1-5--|--5-5-5--5-5-5--|-8--8-8-8--3--|--3-3-3--3-3-3--|
G|-2--2-2--2-2-4--|--4-4-4--4-4-4--|-7--7-7-7--2--|--2-2-2--2-2-2--|
D|-2--2-2--2-2-5--|--5-5-5--5-5-5--|-8--8-8-8--3--|--3-3-3--3-3-3--|
A|-0--0-0--0-0-0--|----------------|--------------|----------------|
E|----------------|----------------|--------------|----------------|


[Instrumental]

   Am          D                     Am        D            C
e|-0--0-0--0-0-2--|--2-2-2--2-2-2--|-0--0-0-0--2--|--2-2-2--0-0-0--|
B|-1--1-1--0-1-3--|--3-3-3--3-3-3--|-1--1-1-1--3--|--3-3-3--1-1-1--|
G|-2--2-2--2-2-2--|--2-2-2--2-2-2--|-2--2-2-2--2--|--2-2-2--0-0-0--|
D|-2--2-2--2-2-0--|--0-0-0--0-0-0--|-2--2-2-2--0--|--0-0-0--2-2-2--|
A|-0--0-0--0-0----|----------------|-0--0-0-0-----|---------3-3-3--|
E|----------------|----------------|--------------|----------------|


[Verso 4]

   Am          G6                    G6        Fmaj7
e|-0--0-0--0-0-0--|--0-0-0--0-0-0--|-0--0-0-0--0--|--0-0-0--0-0-0--|
B|-1--1-1--0-1-5--|--5-5-5--5-5-5--|-3--3-3-3--1--|--1-1-1--1-1-1--|
G|-2--2-2--2-2-4--|--4-4-4--4-4-4--|-4--4-5-4--2--|--2-2-2--2-2-2--|
D|-2--2-2--2-2-5--|--5-5-5--5-5-5--|-5--5-5-5--3--|--3-3-3--3-3-3--|
A|-0--0-0--0-0-0--|----------------|--------------|----------------|
E|----------------|----------------|--------------|----------------|

   Am          G6                    A#6b5     FM7add6
e|-0--0-0--0-0-0--|--0-0-0--0-0-0--|-0--0-0-0--0--|--0-0-0--0-0-0--|
B|-1--1-1--0-1-5--|--5-5-5--5-5-5--|-8--8-8-8--3--|--3-3-3--3-3-3--|
G|-2--2-2--2-2-4--|--4-4-4--4-4-4--|-7--7-7-7--2--|--2-2-2--2-2-2--|
D|-2--2-2--2-2-5--|--5-5-5--5-5-5--|-8--8-8-8--3--|--3-3-3--3-3-3--|
A|-0--0-0--0-0-0--|----------------|--------------|----------------|
E|----------------|----------------|--------------|----------------|


[Coro]

     Am          D                     Am        D            C
e|| -0--0-0--0-0-2--|--2-2-2--2-2-2--|-0--0-0-0--2--|--2-2-2--0-0-0--|
B|| -1--1-1--0-1-3--|--3-3-3--3-3-3--|-1--1-1-1--3--|--3-3-3--1-1-1--|
G||O-2--2-2--2-2-2--|--2-2-2--2-2-2--|-2--2-2-2--2--|--2-2-2--0-0-0--|
D||O-2--2-2--2-2-0--|--0-0-0--0-0-0--|-2--2-2-2--0--|--0-0-0--2-2-2--|
A|| -0--0-0--0-0----|----------------|-0--0-0-0-----|---------3-3-3--|
E|| ----------------|----------------|--------------|----------------|

   Am          D                     Em               D      C
e|-0--0-0--0-0-2--|--2-2-2--2-2-2--|-0--0-0--0-0-0--|-2-2-2--0-0-0-- ||
B|-1--1-1--0-1-3--|--3-3-3--3-3-3--|-0--0-0--0-0-0--|-3-3-3--1-1-1-- ||
G|-2--2-2--2-2-2--|--2-2-2--2-2-2--|-0--0-0--0-0-0--|-2-2-2--0-0-0--O||
D|-2--2-2--2-2-0--|--0-0-0--0-0-0--|-2--2-2--2-2-2--|-0-0-0--2-2-2--O||
A|-0--0-0--0-0----|----------------|-2--2-2--2-2-2--|--------3-3-3-- ||
E|----------------|----------------|-0--0-0--0-0-0--|--------------- ||(x2)

   Fmaj7
e|-0-0-0-0-0-0-0-0-|-0-0-0-0-0-0-0-0-|-0-0-0-0-0-0-0-0-|-0-0-0-0-0-0-0-0-|
B|-1-1-1-1-1-1-1-1-|-1-1-1-1-1-1-1-1-|-1-1-1-1-1-1-1-1-|-1-1-1-1-1-1-1-1-|
G|-2-2-2-2-2-2-2-2-|-2-2-2-2-2-2-2-2-|-2-2-2-2-2-2-2-2-|-2-2-2-2-2-2-2-2-|
D|-3-3-3-3-3-3-3-3-|-3-3-3-3-3-3-3-3-|-3-3-3-3-3-3-3-3-|-3-3-3-3-3-3-3-3-|
A|-----------------|-----------------|-----------------|-----------------|
E|-----------------|-----------------|-----------------|-----------------|


[Coro]

     Am          D                     Am        D            C
e|| -0--0-0--0-0-2--|--2-2-2--2-2-2--|-0--0-0-0--2--|--2-2-2--0-0-0--|
B|| -1--1-1--0-1-3--|--3-3-3--3-3-3--|-1--1-1-1--3--|--3-3-3--1-1-1--|
G||O-2--2-2--2-2-2--|--2-2-2--2-2-2--|-2--2-2-2--2--|--2-2-2--0-0-0--|
D||O-2--2-2--2-2-0--|--0-0-0--0-0-0--|-2--2-2-2--0--|--0-0-0--2-2-2--|
A|| -0--0-0--0-0----|----------------|-0--0-0-0-----|---------3-3-3--|
E|| ----------------|----------------|--------------|----------------|

   Am          D                     Em               D      C
e|-0--0-0--0-0-2--|--2-2-2--2-2-2--|-0--0-0--0-0-0--|-2-2-2--0-0-0-- ||
B|-1--1-1--0-1-3--|--3-3-3--3-3-3--|-0--0-0--0-0-0--|-3-3-3--1-1-1-- ||
G|-2--2-2--2-2-2--|--2-2-2--2-2-2--|-0--0-0--0-0-0--|-2-2-2--0-0-0--O||
D|-2--2-2--2-2-0--|--0-0-0--0-0-0--|-2--2-2--2-2-2--|-0-0-0--2-2-2--O||
A|-0--0-0--0-0----|----------------|-2--2-2--2-2-2--|--------3-3-3-- ||
E|----------------|----------------|-0--0-0--0-0-0--|--------------- ||(x8)
Suggest correction
Creating personal tab
Creating personal tab
You can edit any tab online and save it as your Personal.

You can edit, replace or remove any tab part or add personal notes – all changes will be seen only by you.

Personal tabs can be accessed anytime from any device, even offline.
Learn more »
Give kudos to tab author, rate the tab!
1 2 3 4 5
comments
print report bad tab
guest
You may want to rate the tab now too:
select rating
Wanna post a correction for this tab? Suggest correction