Oops, an error
Loading. Please wait.

Magic Dragon bass

version 1
version 1

Whole song

Interactive

by Sodom
7 views 3 this week
no commentswrite comment
1 2 3 4 5
2 more votes to show rating
add to favorites
×
Save as Personal and add changes to this tab that will be seen only by you. Learn more ›
×
You can save this tab as Personal to edit and correct it or add notes. All changes will be seen only by you. Learn more »
launch autoscroll
font size
0
reset
guitar tuner
edit
Autoscroll
slow
fast
+/-
esc
set tempo
stop
Band : Sodom
Album : Agent Orange
Song : Magic Dragon
Year : 1989
Tuning : EADG

[Intro]
G|--------|--------|--------|---------| (x2)
D|--------|--------|--------|---------|
A|--------|--------|--------|---------|
E|--0--0--|--3--3--|--1--1--|--0--0~--|

[Pre-Verse]   '0***' means to keep playing that note, it's done for saving space.
G|------------------------------------------------------------------------------------------------|--------|
D|------------------------------------------------------------------------------------------------|--------|
A|-----------------------------------------------(8)-(8)-(7)--------------------------------------|--------|
E|--0---0--0--0--0***--3--0--0--1--0--0--0--0***--1--1---0--0--0--0***--3--0--0--1--0--0--0--0**--|-1-1-1--|

[Verse]
G|---------------------------------------------------------------------------------------------------------|
D|---------------------------------------------------------------------------------------------------------|
A|-------------------------------------------------(8)-(8)-(7)---------------------------------------------|
E|-0--0---0--0--0--0***--3--0--0--1--0--0--0--0***--1--1---0--0--0--0***--3--0--0--1--0--0--0--0--0***--1--|

G|-----------------------------------------------| (x3)
D|-----------------------------------------------|
A|-----------------------------------------------|
E|--6----6--6--6--6--5\3---0---0--0--0--0--0--0--|

G|----------------------------| 
D|----------------------------|
A|----------------------------|
E|--6----6--6--6--6--5\3---0--|

G|------------------------------------------------------------------------------------------------|--------|
D|------------------------------------------------------------------------------------------------|--------|
A|-----------------------------------------------(8)-(8)-(7)--------------------------------------|--------|
E|--0---0--0--0--0***--3--0--0--1--0--0--0--0***--1--1---0--0--0--0***--3--0--0--1--0--0--0--0**--|-1-1-1--|


[Verse 2]
G|---------------------------------------------------------------------------------------------------------|
D|---------------------------------------------------------------------------------------------------------|
A|-------------------------------------------------(8)-(8)-(7)---------------------------------------------|
E|-0--0---0--0--0--0***--3--0--0--1--0--0--0--0***--1--1---0--0--0--0***--3--0--0--1--0--0--0--0--0***--1--|

G|-----------------------------------------------| (x3)
D|-----------------------------------------------|
A|-----------------------------------------------|
E|--6----6--6--6--6--5\3---0---0--0--0--0--0--0--|

G|----------------------------| 
D|----------------------------|
A|----------------------------|
E|--6----6--6--6--6--5\3---0--|

[Pre-Chorus]
G|-------------------------------------------------------------------------------------------| (x4)
D|-------------------------------------------------------------------------------------------|
A|--0--0--0--0--0--0--0--0---3--0--0--0---2--0--0--0-----------------------------------------|
E|-----------------------------------------------------1--1--1--1--1--1--0--1--1--1--1--1--1-|

[Chorus]
G|----------------------------------------------------------------------| (x4)
D|----------------------------------------------------------------------|
A|----------------------------------------------------3--3--3--2--2--2--|
E|--0--0--0--0--0--0--0--0--0--0--0---5--4--4--4--4---------------------|

[Pre-Chorus]
G|-------------------------------------------------------------------------------------------| (x2)
D|-------------------------------------------------------------------------------------------|
A|--0--0--0--0--0--0--0--0---3--0--0--0---2--0--0--0-----------------------------------------|
E|-----------------------------------------------------1--1--1--1--1--1--0--1--1--1--1--1--1-|

G|--------------------| (x2)
D|--------------------|
A|--0-----3--2--------|
E|-----------------1--|

[Chorus]
G|----------------------------------------------------------------------| (x4)
D|----------------------------------------------------------------------|
A|----------------------------------------------------3--3--3--2--2--2--|
E|--0--0--0--0--0--0--0--0--0--0--0---5--4--4--4--4---------------------|

[Solo]                                         1st time                   2nd time
G|--------------------------------------------|--------|--------------------------| (x3)
D|--------------------------------------------|--------|--------------------------|
A|--------------------------------------------|--2--3--|--------------------------|
E|--2--2--2--2--2--2--2--2--3--2--2--2--2--2--|--------|--1--1--1--1--1--1--1--1--|

[Pre-Chorus]
G|-------------------------------------------------------------------------------------------| (x2)
D|-------------------------------------------------------------------------------------------|
A|--0--0--0--0--0--0--0--0---3--0--0--0---2--0--0--0-----------------------------------------|
E|-----------------------------------------------------1--1--1--1--1--1--0--1--1--1--1--1--1-|

G|--------------------| (x2)
D|--------------------|
A|--0-----3--2--------|
E|-----------------1--|

[Chorus]
G|----------------------------------------------------------------------| (x4)
D|----------------------------------------------------------------------|
A|----------------------------------------------------3--3--3--2--2--2--|
E|--0--0--0--0--0--0--0--0--0--0--0---5--4--4--4--4---------------------|

[Solo 2]                                       1st time                  2nd time
G|--------------------------------------------|--------|--------------------------| (x3)
D|--------------------------------------------|--------|--------------------------|
A|--------------------------------------------|--2--3--|--------------------------|
E|--2--2--2--2--2--2--2--2--3--2--2--2--2--2--|--------|--1--1--1--1--1--1--1--1--|

[Break]
G|-----|--------------------------------------------------|
D|-----|--------------------------------------------------|
A|-----|--------------------------------------------------|
E|--1--|--1--1--1--1--1--1--1--1--1--1--1--1--1--1--1--1--|

[Interlude] 
G|----------------------------------------------------------| (x2)
D|----------------------------------------------------------|
A|-----------------------------------------------------3----|
E|--0--0--0--0***---3--2---0--0--0--0--0--0--0---3--2----1--|

G|----------------------------------------------------------| (x2)
D|----------------------------------------------------------|
A|-----------------------------------------------------6----|
E|--3--3--3--3***---6--5---3--3--3--3--3--3--3---6--5----4--|

G|----------------------------------------------------------| (x2)
D|----------------------------------------------------------|
A|-----------------------------------------------------3----|
E|--0--0--0--0***---3--2---0--0--0--0--0--0--0---3--2----1--|

G|----------------------------------------------------------| (x2)
D|----------------------------------------------------------|
A|-----------------------------------------------------6----|
E|--3--3--3--3***---6--5---3--3--3--3--3--3--3---6--5----4--|


[Ending] until fade out
G|------|------------------------------------|
D|------|------------------------------------|
A|------|------------------------------------|
E|--0~--|--0~---1~---0~---1~---0~---1~---0~--|


'***' - keep playing the note
'~' - hold the note
'\' - slide down
(x) - alternative note that you can play instead of the normal one
Suggest correction
Creating personal tab
Creating personal tab
You can edit any tab online and save it as your Personal.

You can edit, replace or remove any tab part or add personal notes – all changes will be seen only by you.

Personal tabs can be accessed anytime from any device, even offline.
Learn more »
Give kudos to tab author, rate the tab!
1 2 3 4 5
comments
print report bad tab
guest
You may want to rate the tab now too:
select rating
Wanna post a correction for this tab? Suggest correction