Oops, an error
Loading. Please wait.

Walking On Red Bass Tab

by Sods
4 views 1 this week
no commentswrite comment
1 2 3 4 5
2 more votes to show rating
add to favorites
launch autoscroll
font size
0
reset
guitar tuner
Autoscroll
slow
fast
+/-
esc
set tempo
stop
Help us to improve Ultimate-Guitar.com Take our survey!
×
Author
Difficulty
novice
This song is just the same two riffs being played over and over. It seems improvised or random as to the
order of which they are played.
It's important to constantly pick during the slide (at the same tempo you're normally playing in this song)  
in order to get the sound of the slide right

First variation 

G|---------------------------------------------------------------------------|
D|--------------7-/-11-11-11-11----------------------------------------------|
A|---------------------------------------------------------------------------|
E|----------9-9--------------------------------------------------------------|


Second variation

G|---------------------------------------------------------------------------|
D|--------------11-/-14-14-14-14-----------------------------------------------|
A|---------------------------------------------------------------------------|
E|----------9-9--------------------------------------------------------------|



 /   =  Slide up
Suggest correction
Give kudos to tab author, rate the tab!
1 2 3 4 5
comments
print report bad tab
guest
You may want to rate the tab now too:
select rating
Wanna post a correction for this tab? Suggest correction