Oops, an error
Loading. Please wait.

Kender Du Det Mona Mona Chords

version 3
version 3

Whole song

5,523 views 6 this week
no commentswrite comment
1 2 3 4 5
please rate
add to favorites
launch autoscroll
font size
0
reset
transpose
0
reset
simplify chords
display chords
guitar tuner
Autoscroll
slow
fast
+/-
esc
set tempo
stop
Help us to improve Ultimate-Guitar.com Take our survey!
×
Author
    _____________________________________
   /                                    /  Jeg skulle bruge akkorderne her til
  /  Søren Kragh-Jacobsen              /  en festsang, så jeg lyttede dem lige
 /  Kender Du Det (Mona, Mona, Mona)  /  af og smed dem ud her. Den er genial at
/____________________________________/  skrive en tekst til i en fest-anledning!


 Intro/Mellemspil:
| D     | Gmaj7 | D     | Gmaj7 |


 Vers:
||: D   | Gmaj7 | Em7   | Em7b5 |

 |  D   | B7    | Em7   | A7   :|| 4x


 Omkvæd:
| G     | Em7b5 | D     | B7    |

| Em7   | A7    | Em7   | A7    |




 Akkorderne:  (Capo på 7. bånd)

     D   Gmaj7  Em7  Em7b5   B7    A7*   G 
e:---------0-----0-----0-----------2-----0---: 
B:---0-----0-----1-----1-----0-----1-----1---: 
G:---0-----0-----0-----0-----1-----2-----0---: 
D:---0-----2-----2-----1-----0-----0-----2---: 
A:---2-----3-----0-----0-----2-----------3---: 
E:---3-----------------------0---------------: 


*Hver gang der bliver spillet A7, bliver der også
 lavet et eller andet lille fill med A7sus4-akkorden:
    (A7sus4)
 |-2----3----2---2---2-2-2-2-2-|
 |-1----1----1---1---1-1-1-1-1-|
 |-2----2----2---2---2-2-2-2-2-|
 |-0----0----0---0---0-0-0-0-0-|
 |-----------------------------|
 |-----------------------------|



------------------------------------------------------------------------------
 17th /June /09
 Just mail me at Maitinin@gmail.com with questions, comments and corrections!
------------------------------------------------------------------------------



 " Maitinin writing here - the author of this tab.

   The past 11 years, I have generated 10,318,000 views and 815 top-rated tabs for this site.
   If you want to support an eager contributor like me, check out my own site:


   _____  http://www.PlayLikeTheGreats.com  _____


   Here I will continue to upload and improve my transcriptions.

   Best regards,
   Maitinin

   July, 2015 "
Suggest correction
Give kudos to tab author, rate the tab!
1 2 3 4 5
comments
print report bad tab
guest
You may want to rate the tab now too:
select rating
Wanna post a correction for this tab? Suggest correction