Oops, an error
Loading. Please wait.

Frustration Bass Tab

219 views 1 this week
1 commentread comment
1 2 3 4 5
x 3
add to favorites
launch autoscroll
font size
0
reset
guitar tuner
Autoscroll
slow
fast
+/-
esc
set tempo
stop
Help us to improve Ultimate-Guitar.com Take our survey!
×
Author
Difficulty
novice
Tabbed by: bassm99
E-mail: alanmatthews1966@yahoo.co.uk

Tuning: E, A, D, G

"Frustration" from the album "Non Stop Erotic Cabaret" (1981)
Written by Marc Almond & Dave Ball

Intro: (Play Four Times) 

G|--------------------------------------------------------------------------|
D|--------------------------------------------------------------------------|
A|-----3--5-----------------------------------------------------------------|
E|--5-----------------------------------------------------------------------|

First Bass Pattern:

G|--------------------------------------------------------------------------|
D|------33--------33--------------------------------------------------------|
A|--55------5--0------3-----------------------------------------------------|
E|--------------------------------------------------------------------------|

Second Bass Pattern: 

G|--------------------------------------------------------------------------|
D|--------------------------------------------------------------------------|
A|--55555555--88--77--55--33------------------------------------------------|
E|--------------------------------------------------------------------------|

End: 

G|--------------------------------------------------------------------------|
D|-----3-----3-----5--------------------------------------------------------|
A|--5-----5-----5-----------------------------------------------------------|
E|--------------------------------------------------------------------------|
Suggest correction
Give kudos to tab author, rate the tab!
1 2 3 4 5
comments
print report bad tab
1 comment total.
0 reply
softcell62 10 Mar 06, 2013 12:53 AM

Another fantastic tab!

guest
You may want to rate the tab now too:
select rating
Wanna post a correction for this tab? Suggest correction