Oops, an error
Loading. Please wait.

Say Hello Wave Goodbye Bass Tab

2,467 views 3 this week
1 commentread comment
1 2 3 4 5
2 more votes to show rating
add to favorites
launch autoscroll
font size
0
reset
guitar tuner
Autoscroll
slow
fast
+/-
esc
set tempo
stop
Help us to improve Ultimate-Guitar.com Take our survey!
×
-------------------------------------------------------------------------------
			     SAY HELLO WAVE GOODBYE - Soft Cell
-------------------------------------------------------------------------------

Tabbed By : WibbleWobble
e-mail: organisedchaos@talktalk.net

Tuning: Standard EADG

one of my favourite songs of the 80's & there ain 't many of those.  Very simple but effective

bass comes in at 00.07  MAIN RIFF:

G|---------------------------------------------------------------------------|
D|---------------------------------------------------------------------------|
A|-33-33330------------------------------------------------------------------|
E|----------11-11113---------------------------------------------------------|

play this riff x 16 then chorus "take your hands off me..."

G|---------------------------------------------------------------------------|
D|---------77-777-7---------33-355-5--------77-777-7--------33-355-5---------|
A|-33-333-3---------77-777-7--------33-333-3--------77-777-7---------33-333--|
E|---------------------------------------------------------------------------|

G|---------------------------------------------------------------------------|
D|--77-777-7---------33-355---------77-777-7--------33-355-------------------|
A|-3--------77-777-7--------33-333-3--------77-777-7-------------------------|
E|---------------------------------------------------------------------------|

REPEAT MAIN RIFF x 12
THEN BACK TO CHORUS x 4
THEN REPEAT MAIN RIFF TO CODA
Suggest correction
Give kudos to tab author, rate the tab!
1 2 3 4 5
comments
print report bad tab
1 comment total.
0 reply
krispender 601 Jun 02, 2010 07:04 AM

Great tab man, and I agree, great song:) I think for the chorus the A (7 on the D string) should be an octave lower (0 on the A string), but regardless, good work dude, keep it up.

guest
You may want to rate the tab now too:
select rating
Wanna post a correction for this tab? Suggest correction