Oops, an error
Loading. Please wait.

Seedy Films Bass Tab

261 views 1 this week
no commentswrite comment
1 2 3 4 5
x 5
add to favorites
launch autoscroll
font size
0
reset
guitar tuner
Autoscroll
slow
fast
+/-
esc
set tempo
stop
Help us to improve Ultimate-Guitar.com Take our survey!
×
Author
Difficulty
novice
Tabbed by: bassm99
E-mail: alanmatthews1966@yahoo.co.uk

Not enough Soft Cell tabs online!!
Non Stop Erotic Bass Tabs!!

"Seedy Films" from the album "Non Stop Erotic Cabaret" (1981)
Written by Marc Almond & Dave Ball


Intro & Verses

G|-------------7----5-----------------12----10---------------------------------|
D|-----------------------------------------------------------------------------|
A|--3----5----------------8----10----------------------------------------------|
E|-----------------------------------------------------------------------------|


Chorus [D,C,E,D]

G|----7-7-7-7---5-5-5-5---9-9-9-9---7-7-7-7----------------------------------|
D|---------------------------------------------------------------------------|
A|--5-5-5-5----3-3-3-3---7-7-7-7---5-5-5-5-----------------------------------|
E|---------------------------------------------------------------------------|

G|----7-7-7-7---5-5-5-5---9-9-9-9---7-7-7------------------------------------|
D|---------------------------------------------------------------------------|
A|--5-5-5-5----3-3-3-3---7-7-7-7---5-5-5-5-----------------------------------|
E|---------------------------------------------------------------------------|
Suggest correction
comments
print report bad tab
guest
You may want to rate the tab now too:
select rating
Wanna post a correction for this tab? Suggest correction