Oops, an error
Loading. Please wait.

Tainted Love Tab

version 1
version 1

Whole song

Interactive

33,358 views 18 this week
2 commentsread comments
1 2 3 4 5
x 10
add to favorites
launch autoscroll
font size
0
reset
how to read this tab
guitar tuner
Autoscroll
slow
fast
+/-
esc
set tempo
stop
Help us to improve Ultimate-Guitar.com Take our survey!
×
Author
Difficulty
novice
Song - Tainted Love
Artist - Soft Cell
Tabbed by Angel_Fires

It's normally synth, but I've arranged it for guitar.
Standard Tuning.


Repeat this throughout the whole song:
e------------------|------------------|
B---------4-4-----3|--------4-4------3|
G-0-0-3-3----3/5---|0-0-3-3-----3/5---|
D------------------|------------------|
A------------------|------------------|
E------------------|------------------|

Chorus:
e------------------|------------------|------------------|------------------|
B------------------|------------------|-4----------------|1-----------------|
G-0----------------|-3----------------|------------------|------------------|
D------------------|------------------|------------------|------------------|
A------------------|------------------|------------------|------------------|
E------------------|------------------|------------------|------------------|

e------------------|
B------------------|
G-0----------------|
D------------------|
A------------------|
E------------------|

There you go, super easy song, hope you have fun with it!
Suggest correction
comments
print report bad tab
2 comments total.
+1 reply
raftop 91 Jun 19, 2008 01:44 PM

It should be :
e------------------|------------------|
B---------4-4------|--------4-4-------|
G-0-0-3-3----3/5--0|0-0-3-3-----3/5--0|
D------------------|------------------|
A------------------|------------------|
E------------------|------------------|

0 reply
thacarter 10 Sep 23, 2008 02:13 PM

badbadbad

guest
You may want to rate the tab now too:
select rating
Wanna post a correction for this tab? Suggest correction