Oops, an error
Loading. Please wait.

Tainted Love Bass Tab

version 2
version 2

Whole song

Interactive

8,842 views 18 this week
no commentswrite comment
1 2 3 4 5
x 23
add to favorites
launch autoscroll
font size
0
reset
guitar tuner
backing track
0:00
0:00
×
Best way to learn
"Tainted Love"
Autoscroll
slow
fast
+/-
esc
set tempo
stop
Author
Difficulty
Tabbed by: bassm99
E-mail: alanmatthews1966@yahoo.co.uk

Tuning: E, A, D, G

“Tainted Love” from the album “Non Stop Erotic Cabaret” (1981)
Written by Ed Cobb

Intro & Verse:

G|-------------------------------------------------------------------------|
D|-------------------------------------------------------------------------|
A|------------6-6----------------------------------------------------------|
E|--3-3--6-6-------6-8-----------------------------------------------------|

Bridge:

G|-------------------------------------------------------------------------|
D|-------------------------------------------------------------------------|
A|-------------------------------------------------------------------------|
E|--3-3-3-3---6-6-6-6------------------------------------------------------|

Chorus:

G|-------------------------------------------------------------------------|
D|-------------------------------------------------------------------------|
A|------------------------------------6-6-6-6-6-6-6-6----------------------|
E|--3-3-3-3-3-3-3-3--6-6-6-6-6-6-6-6-------------------8-8-8-8-8-8-8-8-----|

G|-------------------------------------------------------------------------|
D|-------------------------------------------------------------------------|
A|-------------------------------------------------------------------------|
E|--8-8-8-8-8-8-8-8--------------------------------------------------------|

Very simple bassline, just listen to the record for the arrangement on how many times 
you need to play each part.
Suggest correction
comments
print report bad tab
guest
You may want to rate the tab now too:
select rating
Wanna post a correction for this tab? Suggest correction