Oops, an error
Loading. Please wait.

Tainted Love Tab

version 2
version 2

Whole song

Interactive

19,772 views 9 this week
1 commentread comment
1 2 3 4 5
excellent!
x 7
add to favorites
launch autoscroll
font size
0
reset
how to read this tab
guitar tuner
Tab Pro tools
  • play this tab
  • loop segment
  • change instrument
  • show fretboard
  • metronome
×
Best way to learn
"Tainted Love"
Autoscroll
slow
fast
+/-
esc
set tempo
stop
Contributor
Difficulty
novice
im pretty sure this is 100% right. have fun.

intro
E--------------------------------------------|
B--------------------------------------------|
G-----------7-7--0-4-------------------------|
D-4-4--7-7--7-7--0-4-------------------------|      x2
A-4-4--7-7--5-5--0-2-------------------------|
E-2-2--5-5-----------------------------------|

verse
 sometimes i feel i've got to
E--------------------------------------------|
B--------------------------------------------|
G-----------7-7--0-4-------------------------|
D-4-4--7-7--7-7--0-4-------------------------|
A-4-4--7-7--5-5--0-2-------------------------|
E-2-2--5-5-----------------------------------|

run away i've got to
E--------------------------------------------|
B--------------------------------------------|
G-----------7-7--0-4-------------------------|
D-4-4--7-7--7-7--0-4-------------------------|
A-4-4--7-7--5-5--0-2-------------------------|
E-2-2--5-5-----------------------------------|

get away from the pain you
E--------------------------------------------|
B--------------------------------------------|
G-----------7-7--0-4-------------------------|
D-4-4--7-7--7-7--0-4-------------------------|
A-4-4--7-7--5-5--0-2-------------------------|
E-2-2--5-5-----------------------------------|

drive into the heart of me
E--------------------------------------------|
B--------------------------------------------|
G-----------7-7--0-4-------------------------|
D-4-4--7-7--7-7--0-4-------------------------|
A-4-4--7-7--5-5--0-2-------------------------|
E-2-2--5-5-----------------------------------|

the love we share seems to
E--------------------------------------------|
B--------------------------------------------|
G-----------7-7--0-4-------------------------|
D-4-4--7-7--7-7--0-4-------------------------|
A-4-4--7-7--5-5--0-2-------------------------|
E-2-2--5-5-----------------------------------|

go nowhere for i
E--------------------------------------------|
B--------------------------------------------|
G-----------7-7--0-4-------------------------|
D-4-4--7-7--7-7--0-4-------------------------|
A-4-4--7-7--5-5--0-2-------------------------|
E-2-2--5-5-----------------------------------|

toss and turn i can't sleep at night
E--------------------------------------------|
B--------------------------------------------|
G--------------------------------------------|
D-4-4-4-4--7-7-7-7---------------------------|
A-4-4-4-4--7-7-5-5---------------------------|
E-2-2-2-2--5-5-5-5---------------------------|

once i ran to you
E--------------------------------------------|
B--------------------------------------------|
G--------------------------------------------|
D-4------------------------------------------|
A-4------------------------------------------|
E-2------------------------------------------|

now i'll run from you
E--------------------------------------------|
B--------------------------------------------|
G--------------------------------------------|
D-7------------------------------------------|
A-7------------------------------------------|
E-5------------------------------------------|

this tainted love you're giving
E--------------------------------------------|
B--------------------------------------------|
G-7------------------------------------------|
D-7------------------------------------------|
A-5------------------------------------------|
E--------------------------------------------|

i'll give you all a boy could give you
E--------------------------------------------|
B--------------------------------------------|
G-4------------------------------------------|
D-4------------------------------------------|
A-2------------------------------------------|
E--------------------------------------------|

take my tears and that's not nearly all
E--------------------------------------------|
B--------------------------------------------|
G--------------------------------------------|
D-4-4-4-4-4-4-4-4----------------------------|
A-4-4-4-4-4-4-4-4----------------------------|
E-2-2-2-2-2-2-2-2----------------------------|
comments
print report bad tab
1 comment total.
0 reply
godons wrote on August 28 2006, 04:51 am

sorry. at the bottom it did say that you just repeat that for the whole song. it also gave the rest of the lyrics, but when i sent it in, they got taken out. sorry :(

I want to post or [tab]
guest
You may want to rate the tab now too:
select rating
Please do not post tabs as comments. Select "correction" instead!