Oops, an error
Loading. Please wait.

Where The Heart Is bass

55 views 1 this week
no commentswrite comment
1 2 3 4 5
x 6
add to favorites
×
Save as Personal and add changes to this tab that will be seen only by you. Learn more ›
×
You can save this tab as Personal to edit and correct it or add notes. All changes will be seen only by you. Learn more »
launch autoscroll
font size
0
reset
guitar tuner
edit
Autoscroll
slow
fast
+/-
esc
set tempo
stop
Author
Difficulty
Tabbed by: bassm99
E-mail: alanmatthews1966@yahoo.co.uk

Tuning: E, A, D, G

"Where The Heart Is" from the album "The Art Of Falling Apart" (1983)
Written by Almond/Ball

Intro: (Play 4 Times)

G|--------------------------------------------------------------------------|
D|--------------------------------------------------------------------------|
A|--------------------------------------------------------------------------|
E|--3-3-3-3-3-3-3-3---1-1-1-1-1-1-1-1---------------------------------------|

Verse: (Play 8 Times)

G|--------------------------------------------------------------------------|
D|--------------------------------------------------------------------------|
A|--------------------------------------------------------------------------|
E|--1--3-3---1--3-3---3--1-1---1-1-1----------------------------------------|

Chorus:

G|--------------------------------------------------------------------------|
D|--------------------------------------------------------------------------|
A|--3--5-5---5-5-5---5------------------------------------------------------|
E|----------------------3-3---3--5-5-(x3)-----------------------------------|

G|--------------------------------------------------------------------------|
D|--------------------------------------------------------------------------|
A|--3--5-5---5-5-5---5--3-3-3-3-3-3-3-3-(x1)--------------------------------|
E|--------------------------------------------------------------------------|

Repeat Intro: (Play Twice)

Repeat Verse:

Repeat Chorus:

Repeat Verse:

Chorus:

G|--------------------------------------------------------------------------|
D|--------------------------------------------------------------------------|
A|--3--5-5---5-5-5---5------------------------------------------------------|
E|----------------------3-3---3--5-5-(x3)-----------------------------------|

G|--------------------------------------------------------------------------|
D|--------------------------------------------------------------------------|
A|--3--5-5---5-5-5---5--3-3-3-3-3-3-3-(x1)----------------------------------|
E|--------------------------------------------------------------------------|

G|--------------------------------------------------------------------------|
D|--------------------------------------------------------------------------|
A|--3--5-5---5-5-5---5------------------------------------------------------|
E|----------------------3-3---3--5-5-(x3)-----------------------------------|

G|--------------------------------------------------------------------------|
D|--------------------------------------------------------------------------|
A|--3--5-5---5-5-5---5--3-3-3-3-3-3-3-3-(x1)--------------------------------|
E|--------------------------------------------------------------------------|

Ending: (Play 8 Times) (Fades Out)

G|--------------------------------------------------------------------------|
D|--------------------------------------------------------------------------|
A|--------------------------------------------------------------------------|
E|--3-3-3-3-3-3-3-3---1-1-1-1-1-1-1-1---------------------------------------|

            
            
Suggest correction
Creating personal tab
Creating personal tab
You can edit any tab online and save it as your Personal.

You can edit, replace or remove any tab part or add personal notes – all changes will be seen only by you.

Personal tabs can be accessed anytime from any device, even offline.
Learn more »
comments
print report bad tab
guest
You may want to rate the tab now too:
select rating
Wanna post a correction for this tab? Suggest correction