Oops, an error
Loading. Please wait.

Box 254 Lid Bass Tab

4 views 1 this week
no commentswrite comment
1 2 3 4 5
3 more votes to show rating
add to favorites
launch autoscroll
font size
0
reset
guitar tuner
Autoscroll
slow
fast
+/-
esc
set tempo
stop
Help us to improve Ultimate-Guitar.com Take our survey!
×
Author
Difficulty
intermediate
The timing can be quite hard to pin down, but it's just a repeated riff. Nothing too difficult. Weird time
signature means the song is only 5 bars long, though it seems longer

[Verse]

G|--------------------------------5------------|-------------------------------5---------------|
D|----------5------5------------5--------------|----------5-----5------------5-----------------|
A|-0-0---5-----0------5--0-0--5-----7--7--7--7-|--0-0--5-----0-----5--0-0--5-----7--7--7--7----|
E|---------------------------------------------|-----------------------------------------------|

G|--------------------------------5------------|-------------------------------5---------------|
D|----------5------5------------5--------------|----------5-----5------------5-----------------|
A|-0-0---5-----0------5--0-0--5-----7--7--7--7-|--0-0--5-----0-----5--0-0--5-----7--7--7--7----|
E|---------------------------------------------|-----------------------------------------------|

G|--------------------------------5--------------------|
D|----------5------5------------5----------------------|
A|-0-0---5-----0------5--0-0--5-----7--7--7--7--0-0----|
E|-----------------------------------------------------|



************************************

| x   Dead note
| g   Grace note
| (n) Ghost note
| h   Hammer-on
| p   Pull-off
| r   Release
| >   Accented note
| t   Tapping
| b   Bend
| br  Bend release
| pb  Pre-bend
| pbr Pre-bend release
| /   Slide up
| \   Slide down
| ~   Vibrato
| s   Slap
| P   Pop
| PM  Palm mute
| TR  Trill
| N   Tremolo

************************************
Suggest correction
Give kudos to tab author, rate the tab!
1 2 3 4 5
comments
print report bad tab
guest
You may want to rate the tab now too:
select rating
Wanna post a correction for this tab? Suggest correction