Oops, an error
Loading. Please wait.

Can You Heal Me bass

by SOiL
594 views 1 this week
1 commentread comment
1 2 3 4 5
2 more votes to show rating
add to favorites
×
Save as Personal and add changes to this tab that will be seen only by you. Learn more ›
×
You can save this tab as Personal to edit and correct it or add notes. All changes will be seen only by you. Learn more »
launch autoscroll
font size
0
reset
guitar tuner
edit
Autoscroll
slow
fast
+/-
esc
set tempo
stop
Author
----------------------------------------------------------------------------
			     Can You Heal Me? - Soil
----------------------------------------------------------------------------

Tabbed By : _godsmack_
e-mail: pearson1991@hotmail.com

Tuning: standard G D A E
Also the band originally uses a 5 string bass, but i dont own one so this tab is written
4 string, this tab is higher in some points of the song but not by much. Song can be
with a pick but sounds better if you dont. Great song by a not so well known band, plus 
is my first tab so be easy on me. =NOTE= I re-wrote out this song so the lines wouldnt
up where they shouldnt, so hopefully this will be easier to read.

6^7^6 = bend 6th fret down to where it sounds like 7th fret then release
\= slide down
x= muted note


     Intro (x2) [:16 = :26]
G|-------------------------------------------------------------------------|
D|-------------------------------------1-1-1-1--1-1-1-1--1-1-1-1--1--------|
A|-1-1-1-1--1-1-1-1--------------------------------------------------------|
E|-------------------2-2-2-2--2-2-2-2--------------------------------4-----|

     Verse [x4] [:27 = :49]
G|-------------------------------------------------------------------------|
D|-------------------------------------------------------------------------|
A|-------------------------------6-4---------------------------------------|
E|-6-6-6^7^6-66-66--66-6^7^6-66--------------------------------------------|

      Pre-Chorus [:50 = :55]
G|-------------------------------------------------------------------------|
D|-------------------------------------------------------------------------|
A|--------------------------------6-4--------------------------------------|
E|-6---4-6-7-6------6---4-6-7-6--------------------------------------------|

      Chorus [x2] [:56 = 1:06]
G|-------------------------------------------------------------------------|
D|-------------------------------------1-1-1-1--1-1-1-1--1-1-1-1-1---------|
A|-1-1-1-1--1-1-1-1--------------------------------------------------------|
E|-------------------2-2-2-2--2-2-2-2--------------------------------4-----|

      Chorus [pt2]  [1:07 = 1:12]
G|-------------------------------------------------------------------------|
D|-------------------------------------------------------------------------|
A|-1-1-1-1--1-1-1-1--------------------------------------------------------|
E|-------------------2-2-2-2--2-2-2-2--4-4-4-4--4-4-4-4--4-4-4-4--4-4-4-4--|

      Chorus    [1:13 = 1:18]
G|-------------------------------------------------------------------------|
D|-------------------------------------1-1-1-1--1-1-1-1--1-1-1-1-1---------|
A|-1-1-1-1--1-1-1-1--------------------------------------------------------|
E|-------------------2-2-2-2--2-2-2-2-------------------------------4------|

      Verse [x4]  [1:19 = 1:41]
G|-------------------------------------------------------------------------|
D|-------------------------------------------------------------------------|
A|-----------------------------------6-4-----------------------------------|
E|-66-6^7^6-66-66--66-6^7^6-66---------------------------------------------|

      Pre-Chorus [1:42 = 1:46]
G|---------------------------------------------------------------------------|
D|---------------------------------------------------------------------------|
A|---------------------------------------------------------------------------|
E|-6---4-6-7-6------6---4-6-7-6----------------------------------------------|

      Chorus [x2] [1:47 = 1:58]
G|-------------------------------------------------------------------------|
D|-------------------------------------1-1-1-1--1-1-1-1--1-1-1-1-1---------|
A|-1-1-1-1--1-1-1-1--------------------------------------------------------|
E|-------------------2-2-2-2--2-2-2-2--------------------------------4-----|

      Chorus [pt2] [1:59 = 2:04]
G|-------------------------------------------------------------------------|
D|-------------------------------------------------------------------------|
A|-1-1-1-1--1-1-1-1--------------------------------------------------------|
E|-------------------2-2-2-2--2-2-2-2--4-4-4-4--4-4-4-4--4-4-4-4--4-4-4-4--|

       Chorus  [2:05 = 2:09]
G|-------------------------------------------------------------------------|
D|-------------------------------------1-1-1-1--1-1-1-1--1-1-1-1-1---------|
A|-1-1-1-1--1-1-1-1--------------------------------------------------------|
E|-------------------2-2-2-2--2-2-2-2-------------------------------4------|

        Bridge [x4] [2:10 = 2:32]
G|-------------------------------------------------------------------------|
D|-------------------------------------------------------------------------|
A|-------------------------6-6-6-6-6\--------------------------------------|
E|-6-6-6-6-6\--2-2-2-2-2\---------------xxxx4------------------------------|

        Verse [2:33 = 2:45]  1st ending   2nd ending
G|--------------------------|------------|----------------------|
D|--------------------------|------------|----------------------|
A|--------------------------|---6-4------|-2-2-2-2--2-2-2-2--2--|
E|-66-6^7^6-66-66--66-6^7^6-|-66---------|----------------------|

       Chorus [x2] [2:46 = 2:57]
G|-------------------------------------------------------------------------|
D|-------------------------------------1-1-1-1--1-1-1-1--1-1-1-1-1---------|
A|-1-1-1-1--1-1-1-1--------------------------------------------------------|
E|-------------------2-2-2-2--2-2-2-2--------------------------------4-----|

      Chorus [pt2] [2:58 = 3:02]
G|-------------------------------------------------------------------------|
D|-------------------------------------------------------------------------|
A|-1-1-1-1--1-1-1-1--------------------------------------------------------|
E|-------------------2-2-2-2--2-2-2-2--4-4-4-4--4-4-4-4--4-4-4-4--4-4-4-4--|

       Chorus  [3:03 = 3:07]
G|-------------------------------------------------------------------------|
D|-------------------------------------1-1-1-1--1-1-1-1--1-1-1-1-1---------|
A|-1-1-1-1--1-1-1-1--------------------------------------------------------|
E|-------------------2-2-2-2--2-2-2-2-------------------------------4------|

      Bridge  [x2] [3:08 = end]     (2nd time let Ab ring)
G|---------------------------------------------|
D|---------------------------------------------|
A|-------------------------6-6-6-6-6\----------|
E|-6-6-6-6-6\--2-2-2-2-2\---------------xxxx4--|
Suggest correction
Creating personal tab
Creating personal tab
You can edit any tab online and save it as your Personal.

You can edit, replace or remove any tab part or add personal notes – all changes will be seen only by you.

Personal tabs can be accessed anytime from any device, even offline.
Learn more »
Give kudos to tab author, rate the tab!
1 2 3 4 5
comments
print report bad tab
1 comment total.
0 reply
_godsmack_ 370 Aug 28, 2006 01:20 PM

for some reason there is an extra line next to the timing...just ignore it, it shouldnt be there

guest
You may want to rate the tab now too:
select rating
Wanna post a correction for this tab? Suggest correction