Oops, an error
Loading. Please wait.

A Predators Portrait Tab

version 1
version 1

Whole song

Interactive

1,417 views 1 this week
no commentswrite comment
1 2 3 4 5
please rate
add to favorites
launch autoscroll
font size
0
reset
how to read this tab
guitar tuner
Tab Pro tools
  • play this tab
  • loop segment
  • change instrument
  • show fretboard
  • metronome
×
Best way to learn
"A Predators Portrait"
Autoscroll
slow
fast
+/-
esc
set tempo
stop
                     SOILWORK - A PREDATOR'S PORTRAIT
                       From "A Predator's Portrait"
                              Version 1.0

Transcribed by: Justin Simms

For Questions, Comments, Corrections, Requests
please contact at reaper@slayerized.com

Check out The Reaper's Metal Tablature Archive at
http://internettrash.com/users/thereaper/

.  - palm mute                          /  - slide up to
\  - slide down to                      ~  - vibrato
"  - tremelo picking                    () - ghost note
p  - pull off                           h  - hammer-on
tr - trill notes                        fb - full bend (1step)
< > - harmonic

Soilwork - A Predator's Portrait

Tune 2.5 steps down (BEADGB)

Riff A1
|----------------------------------------|
|-------9-----9-9-----------9-9-9--------|
|----------------------------------------|Gtrs I
|-------7-----7-7-----------7-7-7--------|  & II
|-------5-----5-5-----------5-5-5--------|
|-3p0-0---0-0-----0-3p0-0-0--------------|
      .   . .     .     . .

Riff A1 - 3x

Riff A2
|----------------------------------------|
|-------9-----9-9------------------------|
|-------------------9-9-9-9-9-9-9--------|Gtrs I
|-------7-----7-7------------------------|  & II
|-------5-----5-5---7-7-7-7-7-7-7--------|
|-3p0-0---0-0-----0----------------------|
      .   . .     .

Riff A2 - 1x

Riff B
|----------------------------------------|
|----------------------------------------|
|----------------------------------------|Gtrs I
|----------------------------------------|  & II
|-2---2-2-2-2---2-2---2------------------|
|-0---0-0-0-0---0-0---0------------------|
  .   . . . .   . .   .

Riff B - 4x

Riff C
|----------------------------------------|
|----------------------------------------|
|----------------------------------------|Gtrs I
|----------------------------------------|  & II
|-----5h7-----7h8--------------5---------|
|-000-----000-----0-0----0-0-0-3---------|
  ...     ...     . .    . . .


|----------------------------------------|
|----------------------------------------|
|----------------------------------------|Gtrs I
|-------------------10---9---5-----------|  & II
|-----5h7-----7h8---8----7---3-----------|
|-000-----000-----0----0---0-------------|
  ...     ...     .    .   .

Riff C - 5x

Riff D
|----------------------------------------|
|----------------------------------------|
|----------------------------------------|Gtrs I
|----------------------------------------|  & II
|-----5h7-----5h7------------------------|
|-0-0-----0-0----------------------------|
  . .     . .

|----------------------------------------|
|----------------------------------------|
|----------------------------------------|Gtrs I
|-------------------------7-6-5----------|  & II
|-----5h7-----5h7---7p6---5-4-3----------|
|-0-0-----0-0-----0-----0----------------|
  . .     . .     .     .

Riff D - 2x

Riff E
|----------------------------------------|
|----------------------------------------|
|------------11br-----12---11~-----------|Gtr I
|----------------------------------------|
|----------------------------------------|
|-0--0-0-0-0------0-0----0---------------|
| .  . . . .      . .    .               |
|----------------------------------------|
|------------10br-----11---9~------------|<-(note:  on the 10br, if you
|----------------------------------------|Gtr II
|----------------------------------------|  (want, you can just play
|----------------------------------------|  (11, but the 10br IS what he's
|-0--0-0-0-0------0-0----0---------------|  (playing.)
  .  . . . .      . .    .


|----------------------------------------|
|----------------------------------------|
|-11h12p11----11-------------------------|Gtr I
|----------14----14p9--------------------|
|----------------------10----------------|
|----------------------------------------|
|                                        |
|----------------------------------------|
|--9h11p9-----9--------------------------|
|----------12----12-11-------------------|Gtr II
|----------------------9-----------------|
|----------------------------------------|
|----------------------------------------|


|----------------------------------------|
|----------------------------------------|
|------------11br-----12b--11~-----------|Gtr I
|----------------------------------------|
|----------------------------------------|
|-0--0-0-0-0------0-0----0---------------|
|                                        |
|--------------------------10~-----------|
|------------10br-----11-----------------|
|----------------------------------------|Gtr II
|----------------------------------------|
|----------------------------------------|
|-0--0-0-0-0------0-0----0---------------|
  .  . . . .      . .    .


|----------------------------------------|
|----------11----------------------------|
|-11-12-14----14-12-11-------------------|Gtr I
|----------------------14-13p10-9--7-----|
|----------------------------------------|
|----------------------------------------|
|                                        |
|----------10----------------------------|
|-9--11-12----12-11-9--------------------|
|----------------------12-11-9-----9-----|Gtr II
|-------------------------------12-------|
|----------------------------------------|
|----------------------------------------|

Riff E - 2x
Riff C - 4x
Riff D - 2x
Riff E - 4x


|----------------------------------------|
|----------------------------------------|
|----------------------------------------|Gtr I
|---12--12---13--13-----13---------------|
|----------------------------------------|
|-0--------0--------0-0------------------|
| .        .        . .                  |
|----------------------------------------|
|---11--11---12-12------12---------------|
|----------------------------------------|Gtr II
|---9---9----10-10------10---------------|
|----------------------------------------|
|-0--------0--------0-0------------------|
  .        .        . .


Riff F1
|----------------------------------------|
|----------------------------------------|
|-------3-2------------------------------|Gtrs I
|-----5-----3-5---0----------------------|  & II
|---5-----------3---1-3------------------|
|-3---------------------1----------------|


|----------------------------------------|
|----------------------------------------|
|-------3-2------------------------------|Gtrs I
|-----5-----3-5---0----------------------|  & II
|---5-----------3---1-3------------------|
|-3---------------------1----------------|


|----------------------------------------|
|----------------------------------------|
|----------------------------------------|Gtrs I
|--------2----3---3h2p3------------------|  & II
|-0-0000---00---0------------------------|
|----------------------------------------|
  . ....   ..   .

Riff F1 - 1x

Riff F2
|----------------------------------------|
|----------------------------------------|
|-------3-2------------------------------|Gtr I
|-----5-----3-5---0----------------------|
|---5-----------3---1-3------------------|
|-3---------------------1----------------|
|                                        |
|----------------------------------------|
|-------2-0------------------------------|
|-----3-----2-3--------------------------|Gtr II
|---2-----------2-3-0-2------------------|
|-0---------------------3----------------|
|----------------------------------------|


|----------------------------------------|
|----------------------------------------|
|-------3-2------------------------------|Gtr I
|-----5-----3-5---0----------------------|
|---5-----------3---1-3------------------|
|-3---------------------1----------------|
|                                        |
|----------------------------------------|
|-------2-0------------------------------|
|-----3-----2-3--------------------------|Gtr II
|---2-----------2-3-0-2------------------|
|-0---------------------3----------------|
|----------------------------------------|


|----------------------------------------|
|----------------------------------------|
|----------------------------------------|Gtrs I
|--------2----3---3p2h3------------------|  & II
|-0-0000---00---0------------------------|
|----------------------------------------|
  . ....   ..   .

Riff F2 - 1x

Riff F3
|----------------------------------------|
|-------1-0------------------------------|
|-----3-----1-3--------------------------|Gtrs I
|---3-----------1-3---1------------------|  & II
|-1-----------------4--------------------|
|-----------------------4----------------|

|----------------------------------------|
|-------1-0------------------------------|
|-----3-----1-3--------------------------|Gtrs I
|---3-----------1-3---1------------------|  & II
|-1-----------------4--------------------|
|-----------------------4----------------|

|----------------------------------------|
|----------------------------------------|
|----------------------------------------|Gtrs I
|--------5----6----6p5h6-----------------|  & II
|-3-3333---33---33-----------------------|
|----------------------------------------|
  . ....   ..   ..

Riff F3 - 1x

Riff F4
|----------------------------------------|
|-------1-0------------------------------|
|-----3-----1-3--------------------------|Gtr I
|---3-----------1-3---1------------------|
|-1-----------------4--------------------|
|-----------------------4----------------|
|                                        |
|-------1--------------------------------|
|-----1---3-0-1--------------------------|
|---3-----------0-1---0------------------|Gtr II
|-------------------3---1----------------|
|-1--------------------------------------|
|----------------------------------------|


|----------------------------------------|
|-------1-0------------------------------|
|-----3-----1-3--------------------------|Gtr I
|---3-----------1-3---1------------------|
|-1-----------------4--------------------|
|-----------------------4----------------|
|                                        |
|-------1--------------------------------|
|-----1---3-0-1--------------------------|
|---3-----------0-1---0------------------|Gtr II
|-------------------3---1----------------|
|-1--------------------------------------|
|----------------------------------------|


|----------------------------------------|
|----------------------------------------|
|----------------------------------------|Gtrs I
|--------5----6----6p5h6-----------------|  & II
|-3-3333---33---33-----------------------|
|----------------------------------------|
  . ....   ..   ..

Riff F4 - 1x
Riff A1 - 3x
Riff A2 - 1x

1st Solo
|----------------------------------------|
|-14p12p11-------------------------------|
|----------14p12p11-14p12p11-------------|
|----------------------------14~---9-----|
|------------------------------------10--|
|----------------------------------------|

|----------------------------------------|
|----------------------------------------|
|-----------------------------------7----|
|----------------------------7h9h10---9--|
|--9~-10p9p7----------7h9h10-------------|
|------------10p9p7~---------------------|

|-----------------------------16br--14---|
|----------6h7h9-6h7fbr-8fbr-------------|
|----6br-9-------------------------------|
|-10-------------------------------------|
|----------------------------------------|
|----------------------------------------|

|----------------------------------------|
|-14-------14p13p11-10-------------------|
|----14p12-------------12p11-12p11p9~----|
|----------------------------------------|
|----------------------------------------|
|----------------------------------------|

|---------------------7~-----------------|
|-----6h7-6h7h9-6h7h9----9h11h12-9h11h12-|
|-7-9------------------------------------|
|----------------------------------------|
|----------------------------------------|
|----------------------------------------|

|-10-------------------12----------------|
|----11h12h14-11h12h14----12h14h16-------|
|----------------------------------------|
|----------------------------------------|
|----------------------------------------|
|----------------------------------------|

|-19----------------19----------------19-|
|----19----------19----19----------19----|
|-------21----21----------21----21-------|
|----------21----------------21----------|
|----------------------------------------|
|----------------------------------------|

|----------17-19-20-20fbr-------18-------|
|-19\15/19-------------------------19----|
|----------------------------12-------15-|
|-------------------------12-------------|
|----------------------------------------|
|----------------------------------------|

|----------------------------------------|
|----------------------------------------|
|-12-------------------------------------|
|----12----------------------------------|
|-------13-------------------------------|
|----------15----------------------------|


Riff G1 (played under 2nd solo)
|----------------------------------------|
|----------------------------------------|
|-----------2-3------------2-3-----------|
|----------------------------------------|
|---------5--------------5---------------|
|-3-3---3--------3-3---3-----------------|
  . .   . .      . .   . .

|----------------------------------------|
|----------------------------------------|
|-----2-3---2---2-----2----2-------------|
|-------------3----3----3----3-----------|
|---5------------------------------------|
|-3--------------------------------------|
  . .

|----------------------------------------|
|----------------------------------------|
|-----2-3---2---2------------------------|
|-------------3----5-5-5-5-7-7-7-7-------|
|---5--------------3-3-3-3-5-5-5-5----2--|
|-3-----------------------------------0--|
  . .

Riff G1 - 1x
Riff C - 5x
Riff E - 4x

Check out The Reaper's Metal Tablature Archive at
      http://internettrash.com/users/thereaper/

Visit MetalTabs.com for more metal tablatur
comments
We did not receive enough feedback on this tab! Please rate:
print report bad tab
1 2 3 4 5
I want to post or [tab]
guest
You may want to rate the tab now too:
select rating
Please do not post tabs as comments. Select "correction" instead!