Oops, an error
Loading. Please wait.

Chainheart Machine Bass Tab

536 views 1 this week
no commentswrite comment
1 2 3 4 5
please rate
add to favorites
launch autoscroll
font size
0
reset
guitar tuner
Autoscroll
slow
fast
+/-
esc
set tempo
stop
Help us to improve Ultimate-Guitar.com Take our survey!
×
Soilwork
Chainheart Machine 
BEAD

Intro: rest during machine noises 

Verse 1:
|--------------|----------|--------------|----------|
|--------------|----------|--------------|----------|
|--------5-4---|----------|--------5-4---|-121--1---|
|-2-2-22—-2-00-|-23202320-|-2-2-22--2-00-|-----3-23-|

|---|----------|--------------|----------|
|---|----------|--------------|----4-----|
|---|----------|--------5-4---|---0------|
|-r-|-23202320-|-2-2-22--2-00-|-23---/5\-|

|--------------|----------|--------------|----------|
|--------------|----------|--------------|----------|
|--------5-4---|----------|--------5-4---|-121--1---|
|-2-2-22—-2-00-|-23202320-|-2-2-22--2-00-|-----3-23-|

|--------------|----------|--------------|---|
|--------------|----------|--------------|---|
|--------5-4---|----------|--------5-4---|---|
|-2-2-22--2-00-|-23202320-|-2-2-22--2-00-|-r-|

|--------------|----------|--------------|----------|
|--------------|----------|--------------|----------|
|--------5-4---|----------|--------5-4---|-121--1---|
|-2-2-22—-2-00-|-23202320-|-2-2-22--2-00-|-----3-23-|

|--------------|----------|--------------|----------|
|--------------|----------|--------------|----4-----|
|--------5-4---|----------|--------5-4---|---0------|
|-2-2-22--2-00-|-23202320-|-2-2-22--2-00-|-23---/5\-|

Pre-Chorus:
|-----------|--------------|------------------|-----------|
|*----------|--------------|-1010101010101010-|-77779999-*|
|*-77777777-|-999910101010-|------------------|----------*|
|-----------|--------------|------------------|-----------|

Chorus:
|----------|--------|--------|--------|
|----------|--------|--------|--------|
|-3-3-33x3-|-3-33x5-|-5-55x5-|-5-55x--|
|----------|--------|--------|------0-|

|----------|   |----------|--------|--------|---|
|*--------*|   |----------|--------|--------|---|
|*--------*|   |--------3-|-3-33x3-|-3-33x2-|---|
|-00000000-|X3 |-0000000--|--------|--------|-r-|

Verse 2:
|--------------|----------|--------------|----------|
|*-------------|----------|--------------|----------|
|*-------5-4---|----------|--------5-4---|-121--1---|
|-2-2-22—-2-00-|-23202320-|-2-2-22--2-00-|-----3-23-|

|--------------|----------|--------------|----------|
|--------------|----------|--------------|----4----*|
|--------5-4---|----------|--------5-4---|---0-----*|
|-2-2-22--2-00-|-23202320-|-2-2-22--2-00-|-23---/5\-|

Pre-Chorus:
Chorus:

Bridge:
|-------|---------|   |---------||---------|  |-----------------|
|-------|*-------*|   |---------||*-------*|  |-----------------|
|-------|*-5-----*|   |--5------||*-5-----*|  |-333-333-333-333-|
|-r--30-|---03010-|X4 |-0-03010-||---03010-|X3|-----------------|X4

|---------||---------|  |-------------------|------------------|
|---------||*-------*|  |*-----------------*|-----------------*|
|--5------||*-5-----*|  |*-333-333-333-333-*|-555-555-555-555-*|
|-0-03010-||---03010-|X3|-------------------|------------------|

|---------||---------|  |-----------------|
|---------||*-------*|  |-----------------|
|--5------||*-5-----*|  |-333-333-333-333-|
|-0-03010-||---03010-|X3|-----------------|X4

|---------||---------|  |-------------------|------------------|
|---------||*-------*|  |*-----------------*|-----------------*|
|--5------||*-5-----*|  |*-333-333-333-333-*|-555-555-555-555-*|
|-0-03010-||---03010-|X3|-------------------|------------------|

Solo:
|--------------|-------------------|--------------|-------------------|
|*-------------|-------------------|--------------|-------------------|
|*-------------|-------------------|-2-r-22-2-2-2-|-r-2-r-22-2-2-22-2-|
|-0-r-00-0-0-0-|-r-0-r-00-0-0-00-0-|--------------|-------------------|

|--------------|-------------------|--------------|-------------------|
|--------------|-------------------|--------------|------------------*|
|--------------|-------------------|--------------|------------------*|
|-0-r-00-0-0-0-|-r-0-r-00-0-0-00-0-|-0-r-00-0-0-0-|-r-0-r-00-0-0-00-0-|

|--------------------|--------------------|
|*-------------------|----------------4~-*|
|*-------------------|-------------------*|
|-022222-022222-0222-|-22-022222-0222-----|

|-------|----------|--------|-----------|--------|-----------|
|-------|----------|--------|-----------|--------|-----------|
|-------|----------|-3~-x3~-|-33~-x3~-x-|-5~-x5~-|-55~-x5~-x-|
|-0~-0~-|-00-x00-x-|--------|-----------|--------|-----------|

|--------------|----------|-----------------|-------------|
|--------------|----------|-----------------|-------------|
|-2~-2-r-2-r-2-|-2~-x22-r-|-222-222-222-222-|-2~-2~-2~-2~-|
|--------------|----------|-----------------|-------------|

Verse 3:
|-----|----------|---|----------|
|-----|----------|---|----------|
|-----|----------|---|-121--1---|
|-2-r-|-23202320-|-r-|-----3-23-|

|---|----------|---|----------|
|---|----------|---|----4-----|
|---|----------|---|---0------|
|-r-|-23202320-|-r-|-23---/5\-|

|--------------|----------|--------------|----------|
|--------------|----------|--------------|----------|
|--------5-4---|----------|--------5-4---|-121--1---|
|-2-2-22—-2-00-|-23202320-|-2-2-22--2-00-|-----3-23-|

|--------------|----------|--------------|----------|---------|
|--------------|----------|--------------|----4-----|---------|
|--------5-4---|----------|--------5-4---|---0------|---------|
|-2-2-22--2-00-|-23202320-|-2-2-22--2-00-|-23---/5\-|-000-000-|

|--------------|----------|--------------|----------|
|--------------|----------|--------------|----------|
|--------5-4---|----------|--------5-4---|-121--1---|
|-2-2-22—-2-00-|-23202320-|-2-2-22--2-00-|-----3-23-|

|--------------|----------|--------------|----------|
|--------------|----------|--------------|----4-----|
|--------5-4---|----------|--------5-4---|---0------|
|-2-2-22--2-00-|-23202320-|-2-2-22--2-00-|-23---/5\-|

Pre-Chorus:

Chorus:
|-----------|--------|--------|--------|
|*----------|--------|--------|--------|
|*-3-3-33x3-|-3-33x5-|-5-55x5-|-5-55x--|
|-----------|--------|--------|------0-|

|----------|   |-----------|
|*--------*|   |----------*|
|*--------*|   |--------3-*|
|-00000000-|X3 |-0000000---|

Outro:
|--------|----------|---|--------|
|--------|----------|---|--------|
|-3-33x3-|-3-r------|---|--------|
|--------|-----6563-|-r-|-3230-r-|
Suggest correction
Give kudos to tab author, rate the tab!
1 2 3 4 5
comments
print report bad tab
guest
You may want to rate the tab now too:
select rating
Please do not post tabs as comments. Select "correction" instead!