Oops, an error
Loading. Please wait.

Chainheart Machine Tab

2,215 views 1 this week
no commentswrite comment
1 2 3 4 5
please rate
add to favorites
launch autoscroll
font size
0
reset
how to read this tab
guitar tuner
Autoscroll
slow
fast
+/-
esc
set tempo
stop
Help us to improve Ultimate-Guitar.com Take our survey!
×
                  SOILWORK - THE CHAINHEART MACHINE
                    From "The Chainheart Machine"
                         2000 CENTURY MEDIA

                        Version 3.1 - AUG'02

Originally Transcribed by: Justin Simms
Corrections by: death8699
Riff B & C fixed by: Paolo Pieri

For Questions, Comments, Newest Version, or Corrections contact
 Justin: at reaper@slayerized.com
 death8699: at archenemies@aol.com
 Paolo Pieri: at thedeath@jumpy.it

Check Out Death8699.com, With More Transcriptions On It:
 http://www.death8699.com

.  - palm mute                  /  - slide up to
\  - slide down to              ~  - vibrato
h  - hammer on                  b  - bend
p  - pull off                   Suffixes for bend
ph - pinch harmonic             f - full bend    h - half bend
*  - see comment                r - release      t - tap bend
X  - percussion mute            ~ - vibrato bend
@  - slight palm mute           () - ghost note, sustained note

Tune Gtr to B

> > T H E  C H A I N H E A R T  M A C H I N E < <

*Riff A
|---------------------------|------------------------------------|
|---------------------------|------------------------------------|
|---------------------------|------------------------------------|Gtr
|---------------------------|------------------------------------| I
|-------5---4---------------|-------5---4-----4h5p4-----5--------|
|-2-222---2---2-2-2320-2320-|-2-222---2---2-2-------2-3---2-3ph~-|
| . ...   .   . . .... ....   . ...   .   . .       . .   .
|
|
|---------------------------|------------------------------------|
|---------------------------|------------------------------------|
|-------4---3---------------|-------4---3-----3h4p3-----4--------|Gtr
|---------------------------|-------------------------------4ph~-| II
|---------------------------|------------------------------------|
|-2-222---2---2-2-2320-2320-|-2-222---2---2-2-------2-3---2------|
| . ...   .   . . .... ....   . ...   .   . .       . .   .
|
|
|
|---------------------------|----------------------|
|---------------------------|----------------------|
|---------------------------|----------------------|Gtr
|---------------------------|-------------------4~-| I
|-------5---4---------------|-------5---4----------|
|-2-222---2---2-2-2320-2320-|-2-222---2---2-3-5----|
| . ...   .   . . .... ....   . ...   .   . . .
|
|
|---------------------------|----------------------|
|---------------------------|----------------------|
|-------4---3---------------|-------4---3----------|Gtr
|---------------------------|-------------------4~-| II
|---------------------------|----------------------|
|-2-222---2---2-2-2320-2320-|-2-222---2---2-3-5----|
  . ...   .   . . .... ....   . ...   .   . . .


*This riff has various fills.  2nd guitar
plays these higher end notes at various different times
throughout the song.


Riff B 
|-------------------------------------------------|
|--------------------777--------------------------|
|-------77--------444-----------------------------|Gtr
|-555555--55777777-------222222222222444444444444-| I
|-------------------------------------------------|
|-------------------------------------------------|
| 
|
|-------------------------------------------------|
|-------------------------------------------------|
|--------------------777--------------------------|Gtr
|-------99--------555-----------------------------| II
|-777777--77999999-------333333333333555555555555-|
|-------------------------------------------------|
|
|
|-------------------------------------------------|
|--------------------777--------------------------|
|-------77--------444-----------------------------|Gtr
|-555555--55777777-------222222222222-2-4-5-4-5-7-| I
|-------------------------------------------------|
|-------------------------------------------------|
| 
|
|-------------------------------------------------|
|-------------------------------------------------|
|--------------------777--------------------------|Gtr
|-------99--------555-----------------------------| II
|-777777--77999999-------333333333333555555555555-|
|-------------------------------------------------|




Riff C 
|------------------------------------------------------------------|
|------------------------------------------------------------------|
|---7-5h7---7-5h7---9-7h9---9-7h9---12-11-9-11-12-11/12---12-11-9--|
|-5-------5-------7-------7-------9---------------------9----------|
|-3-------3-------5-------5-------7---------------------7----------|
|------------------------------------------------------------------|

|------------------------------------------------------------------|
|------------------------------------------------------------------|
|-11-12-11/12---7-5h7---7-5h7--------------------------------------|
|-------------5-------5--------------------------------------------|
|-------------3-------3-------2------------------------------------|
|-----------------------------0------------------------------------|


Riff A 2tx
Riff B 1tx
Riff C 1tx
Fill


*Riff D            8tx (2 guitars)    2tx (2 guitars)
|-------|-------------|------------------|----------------------------------|
|-------|-------------|------------------|----------------------------------|
|-------|-------------|-7777777777777777-|-77777777777777779999999999999999-|
|-------|-------------|-5555555555555555-|-55555555555555557777777777777777-|
|-4-2---|-5-----------|------------------|----------------------------------|
|-2-0---|---3-2-3-0---|------------------|----------------------------------|
            . . .


*Listen to song for different endings.


Riff E (play over lead)
|-------------------------------------------------------------------|
|-------------------------------------------------------------------|
|-------------------------------------------------------------------|
|-------------------------------------------------------------------|
|-----------------------2-22-2-2-2-2-22-2-2-2-----------------------|
|-0-00-0-0-0-0-00-0-0-0-----------------------0-00-0-0-0-0-00-0-0-0-|
| . .. . . . . .. . . . . .. . . . . .. . . . . .. . . . . .. . . .
|
|                    2tx
|-----------------------|
|-----------------------|
|-----------------------|
|-----------------------|
|-----------------------|
|-0-00-0-0-0-0-00-0-0-0-|
  . .. . . . . .. . . .


*Lead
|------------------14151412----|-15b~-----------|
|-/111121213131414----------11-|----------------|
|------------------------------|----------------|
|------------------------------|----------------|
|------------------------------|----------------|
|------------------------------|----------------|
|
|
|------------------------------|
|-------------------14151412---|
|-/1111121213131414---------11-|
|------------------------------|
|------------------------------|
|------------------------------|


*Listen to the song for different endings.


Riff F (over solo)                  4tx
|--------------------------------------|
|--------------------------------------|
|--------------------------------------|
|-----------------------------------4~-|
|--------------------------------------|
|-0-2---0-2222---0-2---0-2222---0h2----|
          ....           ....


Solo
|------------------------------------------------------------------|
|----------20fb~-19fb-18fb-13~--17fb-16fb-11~-----------------13~--|
|-16-17-19-------------------------------------11-13br-------------|
|------------------------------------------------------11~---------|
|------------------------------------------------------------------|
|------------------------------------------------------------------|
|
|
|
|----17-16-17-19-17-19---------------------------------------------|
|-16-------------------21fb--------------19-18-17fb~--------12-14--|
|----------------------------11-12-14-15--------------12-13--------|
|------------------------------------------------------------------|
|------------------------------------------------------------------|
|------------------------------------------------------------------|
|                            .  .  .  .               .  .
|
|
|------------------------------------------------------------------|
|-19-18-17-19fb~-------12-14-19-18-17-21fb-20fb--19-18-17-16-15-13-|
|----------------12-13---------------------------------------------|
|------------------------------------------------------------------|
|------------------------------------------------------------------|
|------------------------------------------------------------------|
|                .  .
|
|
|-----------------|
|-12--10fb-9fb~---|
|-----------------|
|-----------------|
|-----------------|
|-----------------|


Riff G (over solo)                   1tx
|---------------------------------------|
|---------------------------------------|
|---------9-----------------------------|
|--------10-----7------4------4---------|
|-2-------------5------2------2---------|
|-0----------------------------------x\-|



|---------------------------|------------------------------------|
|---------------------------|------------------------------------|
|---------------------------|------------------------------------|Gtr
|---------------------------|------------------------------------| I
|-------5---4---------------|-------5---4-----4h5p4-----5--------|
|-2-222---2---2-2-2320-2320-|-2-222---2---2-2-------2-3---2-3ph~-|
| . ...   .   . . .... ....   . ...   .   . .       . .   .
|
|
|-----------------------------|---------------------------------|
|-----------------------------|---------------------------------|
|-----------------------------|---------------------------------|Gtr
|-----------------------------|---------------------------------| II
|---------------------------4-|--------------4h5p4-----5--------|
|-----------------2320-2320-2-|--------------------2-3---2-3ph~-|
|                 .... ....                        . .   .
|
|
|---------------------------|----------------------|
|---------------------------|----------------------|
|---------------------------|----------------------|Gtr
|---------------------------|-------------------4~-| I
|-------5---4---------------|-------5---4----------|
|-2-222---2---2-2-2320-2320-|-2-222---2---2-3-5----|
| . ...   .   . . .... ....   . ...   .
|
|
|-----------------------------|--------------------|
|-----------------------------|--------------------|
|-----------------------------|--------------------|Gtr
|-----------------------------|-----------------4~-| II
|-4-------------------------4-|--------------------|
|-2---------------2320-2320-2-|-----------2-3-5----|
                  .... ....               . . .


Riff A 1tx


Fill 2
|-------------|
|-------------|
|-------------|
|-------------|
|-2-2-2-2-2-2-|
|-0-0-0-0-0-0-|
  . . . . . .


Riff A 1tx
Riff B 1tx
Riff C 2tx
Fill


Ending
|----------------------|
|----------------------|
|----------------------|
|----------------------|
|-9-8-7-5------7-6-5-2-|
|-7-6-5-3------5-4-3-0-|
  . . .        . . .


Check Out Death8699.com, With More Transcriptions On It:
 http://www.death8699.com

Visit MetalTabs.com for more metal tablatur
Suggest correction
What's this?
You can suggest a correction to this tab. Community and Mods will review your correction and vote to approve or reject it.
comments
We did not receive enough feedback on this tab! Please rate:
print report bad tab
1 2 3 4 5
guest
You may want to rate the tab now too:
select rating
Please do not post tabs as comments. Select "correction" instead!