Oops, an error
Loading. Please wait.

Downfall 24 Bass Tab

version 1
version 1

Whole song

Interactive

943 views 1 this week
no commentswrite comment
1 2 3 4 5
please rate
add to favorites
launch autoscroll
font size
0
reset
guitar tuner
Tab Pro tools
  • play this tab
  • loop segment
  • change instrument
  • show fretboard
  • metronome
×
Best way to learn
"Downfall 24"
Autoscroll
slow
fast
+/-
esc
set tempo
stop
Contributor
Soilwork
Downfall 24
BEAD

Intro:
|----------------|
|----------------|
|----------------|
|-Rest-7-seconds-| 

|-----------------|
|--------------3--|
|-------------0---|
|-330-0-330-0-----|

                 |1                |2                |
|----------------|-----------------|-----------------|
|*---------------|-----------------|--------------3-*|
|*----------2333-|---------2h3p2h3-|-------------0--*|
|--0-200-00------|0-200-00---------|-330-0-330-0-----| 

Verse 1:
|-----------------------------------|----------------------------|--------------|
|---------------------------------3-|----------------------------|--------------|
|---------------21------21-------0--|-------------------------32-|--------------|
|-330-00000000-0---043-0---043-0----|-00000000-300-200-300-200---|-330-00000000-|

|-----------------|--------------|-------------------|---------------|
|-----------------|--------------|-------------------|---------------|
|--21------21-----|--------------|----------------32-|------------32-|
|-0---043-0---043-|-330-00000000-|-300-200-300-200---|0~---0~--0-0---|

Chorus:
                 |1                |2                |
|----------------|-----------------|-----------------|
|*---------------|-----------------|--------------3-*|
|*----------2333-|---------2h3p2h3-|-------------0--*|
|--0-200-00------|0-200-00---------|-330-0-330-0-----|

Verse 1:

Verse 2: 
|---------------------------------|-------------------------------------|
|---------------------------------|-------------------------------------|
|-------32--------3230--------32--|---3--3230------3230----3--2120------|
|-003030-----0030-------003030----|-00-0------0030-------00-0------0030-|

|-------------------|
|-----3-33-----5-55-|
|-000------222------|
|-------------------|

Chorus: 

Bridge: 
|---------------------|-----------------------------|----------------------|
|-------------------3-|-----------------------------|----------3-2---------|
|------------------0--|-----------------------------|--------------0---32--|
|-r-203022-r-0-0-0----|-22-22-22-22-22-22-22-203022-|-22-22-22-------0-----|

|-----------------------------|-----------------------|
|-----------------------------|---------------------3-|
|-----------------------------|--------------------0--|
|-22-22-22-22-22-22-22-203022-|-22-22-22-22-22-22-----|

|-----------------------------|-----------------------|
|-----------------------------|-----------3-2---------|
|-----------------------------|---------------0---32--|
|-22-22-22-22-22-22-22-203022-|-22-22-22--------0-----|

Solo: 
|-----------------------------|-----------------------|
|*----------------------------|-----------3-2--------*|
|*----------------------------|---------------0---32-*|
|-22-22-22-22-22-22-22-203022-|-22-22-22--------0-----| 

Final Chorus: 
|---------------|-----------------|---------------|----------------|
|---------------|-----------------|---------------|--------------3-|
|----------2333-|---------2h3p2h3-|----------2333-|-------------0--|
|-0-200-00------|0-200-00---------|-0-200-00------|-330-0-330-0----|

|---------------|------------------|--------------|-----------------|------|
|---------------|------------------|--------------|*---------------*|------|
|----------2333-|----------2h3p2h3-|---------2333-|*-------0-------*|------|
|-0-200-00------|-0-200-00---------|-0-200-0------|--00-00---22-00--|-rest-|
comments
We did not receive enough feedback on this tab! Please rate:
print report bad tab
1 2 3 4 5
I want to post or [tab]
guest
You may want to rate the tab now too:
select rating
Please do not post tabs as comments. Select "correction" instead!