Oops, an error
Loading. Please wait.

Fate In Motion Tab

version 1
version 1

Whole song

1,158 views 1 this week
no commentswrite comment
1 2 3 4 5
please rate
add to favorites
launch autoscroll
font size
0
reset
how to read this tab
guitar tuner
Autoscroll
slow
fast
+/-
esc
set tempo
stop
Help us to improve Ultimate-Guitar.com Take our survey!
×
Author
Difficulty
Tuning
intermediate
B E A D F# B
SOILWORK - FATE IN MOTION                                         bullet_trip@yahoo.com

Tuning: B Standard  (B E A D G B)


MAIN       
|-----------------------------------------------------------------|
|-----------------------------------------------------------------|   THIS
|-11-----------------------------9------------7-------------------|   COMES
|-----------------------------------------------------------------|  IN LATER
|-9------------------------------7------------5-------------------|
|-----------------------------------------------------------------|
|
|
|-0------------------------------0------------0-------------------|
|-5------------------------------5------------3-------------------|
|-7------------------------------3------------2-------------------|
|-0------------------------------0------------0-------------------|
|-----------------------------------------------------------------|
|-----------------------------------------------------------------|


VERSE
|---------7-------------------------------------------------------|
|---------------------8---7---------------7-----------8---7-------|
|-------------9---------------9---------------9---------------9---|
|-----9-------------------------------9---------------------------|
|-7---------------7---------------7---------------7---------------|
|-----------------------------------------------------------------|
|
|
|-----------------------------------------------------------------|
|-------------5-5-5-5-5-5-5-5-5-5-------------5-5-5-5-5-5-4-4-4-4-|
|-2-2-2-2-2-2---------------------2-2-2-2-2-2---------------------|
  . . . . . . . . . . . . . . . . . . . . . . . . . . . . . . . .


|---------7-------------------------------------------------------|
|---------------------8---7---------------7-----------8---7-------|
|-------------9---------------9---------------9---------------9---|
|-----9-------------------------------9---------------------------|
|-7---------------7---------------7---------------7---------------|
|-----------------------------------------------------------------|
|
|
|-----------------------------------------------------------------|
|-------------5-5-5-5-5-5-5-5-5-5-------------5-5-5-5-5-5-2-2-2-2-|
|-2-2-2-2-2-2---------------------2-2-2-2-2-2---------------------|
  . . . . . . . . . . . . . . . . . . . . . . . . . . . . . . . .



CHORUS
|-------------------------------------------------------------------------|
|-2-4-4------2-4-4-------4-------2-4-4------2-4-4------4---4---5-/7-------|
|-2-4-4------2-4-4-------4-------2-4-4------2-4-4------4---4---5-/7-------|
|-0-2-2------0-2-2-------2-------0-2-2------0-2-2------2---2---3-/5-------|

|-------------------------------------------------------------------------|
|-----------------------------------------------------<5>-<5>-----<5>-<5>-|
|-----------------------------------------------------<5>-<5>-----<5>-<5>-|
|-2-4-4------2-4-4-------4-----2-4-4------2-4-4---X-X-<5>-<5>-X-X-<5>-<5>-|
|-2-4-4------2-4-4-------4-----2-4-4------2-4-4---X-X---------X-X---------|
|-0-2-2------0-2-2-------2-----0-2-2------0-2-2---X-X---------X-X---------|



MIDDLE
|-----------------------------------------------------------------|
|-------------5-5-5-5-5-5-5-5-5-5-------------5-5-5-5-5-5-4-4-4-4-|
|-2-2---2-2-2---------------------2-2-2-2-2-2---------------------|
  . .   . . .


|-----------------------------------------------------------------|
|-------------5-5-5-5-5-5-5-5-5-5-------------5-5-5-5-5-5-2-2-2-2-|
|-2-2---2-2-2---------------------2-2-2-2-2-2---------------------|
  . .   . . .



LAST CHORUS
|-------------------------------------------------------------------------|
|-2-4-4------2-4-4-------4-------2-4-4------2-4-4------4---4---5-/7-------|
|-2-4-4------2-4-4-------4-------2-4-4------2-4-4------4---4---5-/7-------|
|-0-2-2------0-2-2-------2-------0-2-2------0-2-2------2---2---3-/5-------|



|-------------------------------------------------------------------------|
|-2-4-4------2-4-4-------4-------2-4-4------2-4-4------4---------5-/7-----|
|-2-4-4------2-4-4-------4-------2-4-4------2-4-4------4---------5-/7-----|
|-0-2-2------0-2-2-------2-------0-2-2------0-2-2------2---0-2-2-3-/5-----|
                                                           . . .


|-------------------------------------------------------------------------|
|-2-4-4------2-4-4-------4-------2-4-4------2-4-4------4---4---5-/7-------|
|-2-4-4------2-4-4-------4-------2-4-4------2-4-4------4---4---5-/7-------|
|-0-2-2------0-2-2-------2-------0-2-2------0-2-2------2---2---3-/5-------|



|-------------------------------------------------------------------------|
|-2-4-4------2-4-4-------4-------2-4-4------2-4-4---------4-4-----5-5-----|
|-2-4-4------2-4-4-------4-------2-4-4------2-4-4---------4-4-----5-5-----|
|-0-2-2------0-2-2-------2-------0-2-2------0-2-2-----2-2-2-2-2-2-3-3-----|
                                                      . .     . .
Suggest correction
What's this?
You can suggest a correction to this tab. Community and Mods will review your correction and vote to approve or reject it.
comments
We did not receive enough feedback on this tab! Please rate:
print report bad tab
1 2 3 4 5
guest
You may want to rate the tab now too:
select rating
Please do not post tabs as comments. Select "correction" instead!