Oops, an error
Loading. Please wait.

Machine Gun Majesty Tab

version 1
version 1

Whole song

Interactive

1,083 views 3 this week
no commentswrite comment
1 2 3 4 5
excellent!
x 2
add to favorites
launch autoscroll
font size
0
reset
how to read this tab
guitar tuner
Tab Pro tools
  • play this tab
  • loop segment
  • change instrument
  • show fretboard
  • metronome
Autoscroll
slow
fast
+/-
esc
set tempo
stop
                      SOILWORK - MACHINE GUN MAJESTY
                      From the Album THE CHAINHEART MACHINE
                      Copyright 2000 CENTURY MEDIA
                      Version 1.0 - SEPTEMBER 2001

Transcribed by: Christopher G.E. Peters
Structure by: death8699

For Questions, Comments, Newest Version, or Corrections contact
Chris Peters: at JotunOneLouder@hotmail.com
death8699: at unhollowed@aol.com

Check Out Death Warp, With More Transcriptions On It:
http://tiger.towson.edu/~dalvis1

..  - palm mute          /  - slide up to
\  - slide down to      ~  - vibrato
h  - hammer on          b  - bend
p  - pull off            Suffixes for bend
                          ph - pinch harmonic
                           f - full bend    h - half bend
*  - see comment           r - release      t - tap bend
X  - percussion mute       ~ - vibrato bend
@  - slight palm mute     () - ghost note, sustained note

Tune Gtr to B

MACHINE GUN MAJESTY

Riff A
|------------------------------------------------------------|
|------------------------------------------------------------|
|------------------------------------------------------------|
|------------------------------------------------------------|
|-8----7-8-------------------8----7-8---8-7-----7------------|
|--000--0--0-0-000-000-000----000--0--0-----8-7----8-7-5-----|
|  ...  .  . . ... ... ...    ...  .  .     . .    . . .
|                                                         2tx
|------------------------------------------------------------|
|------------------------------------------------------------|
|-------------------------------------------------7\---------|
|-------------------------------------------------5\---------|
|-8----7-8-------------------8----7-8---8-7------------------|
|--000--0--000-000-000-000----000--0--0-----8-7-0------------|
   ...  .  ... ... ... ...    ...  .  .     . . .


Riff B                  2tx
|--------------------------|
|--------------------------|
|--------------------------|
|-----8------------7-------|
|-5-7-6-7-5-7--5-7-4-7-5-7-|
|-3-5-6-5-3-5--3-5---5-3-5-|


Riff A 2tx


Riff C                                                              2tx
|----------------------------------------------------------------------|
|----------------------------------------------------------------------|
|----------------------------------------------------------------------|
|----------------------------------------------------------------------|
|---8p7-8---7p5-7---8p7-8---11p9-11-----8p7-8---7p5-7---8p7-8-7h8p7----|
|-0-------0-------0-------0-----------0-------0-------0-------------4^~|
  .       .       .       .           .       .       .


Riff A 2tx
Riff B 4tx
Riff C 2tx


Riff D                                               1tx
|-------------------------------------------------------|
|-------------------------------------------------------|
|-------------------------------------------------------|
|----------------------------------------9999------9999-|
|-3-------------------------3---7--------7777------7777-|
|-1---0000-0000-0000-0000---1---5---0000------0000------|
      .... .... .... ....           ....      ....


Riff A 2tx
Riff B 2tx
Riff C 2tx
Riff D 1tx


Riff E                                        4tx
|------------------------------------------------|
|-77777777-888888888888-1010101010-131313131313--|
|-44444444-555555555555-7777777777-101010101010--|
|-44444444-555555555555-7777777777-101010101010--|
|------------------------------------------------|
|------------------------------------------------|


Riff F
|---------------------------------------------------------|
|---7h8p7-----7h8p7------------7h8p7------7h8p7-----------|
|---------------------------------------------------------| I
|-9-------9-9-------9-9-9--10-------10-10------10-10-10---|
|7---------7---------7-7--7-----------7----------7--7-----|
|---------------------------------------------------------|
|.         .         . .  .           .          .  .
|
|---------------------------------------------------------|
|---------------------------------------------------------|
|---------------------------------------------------------| II
|---------------------------------------------------------|
|-22---------22-2---------------222-------222-------------|
|-00---------00-0---------------000-------000-------------|
| ..         .. .               ...       ...
|
|---------------------------------------------------------------------|
|----10h12p10-------10h12p10------------- 10h12p10-----10h12p10-------|
|------------------------------------------------------------------11~| I
|--12---------12--12--------12--12--12--12--------12-12--------12-----|
|10-------------10------------10--10---9------------9------------9----|
|---------------------------------------------------------------------|
| .              .             .   .   .            .            .
|                                                                  2tx
|---------------------------------------------------------------------|
|---------------------------------------------------------------------|
|---------------------------------------------------------------------| II
|---------------------------------------------------------------------|
|-55-----------55-5-----------------------555-------555---------------|
|-33-----------33-3-----------------------222-------222---------------|
  ..           .. .                       ...       ...


Riff G
|-----------------------------------------------------------------|
|----9h10p9------9h10p9-------------9h10p9------9h10p9------------|
|-----------------------------------------------------------------| I
|-11-------11-11-------11-11-11--12-------12-12-------12-12-12----|
|9-----------9-----------9--9---9-----------9-----------9--9------|
|-----------------------------------------------------------------|
|.           .           .  .   .           .           .  .
|
|-----------------------------------------------------------------|
|-----------------------------------------------------------------|
|-----------------------------------------------------------------| II
|-4------------------------------7--------------------------------|
|-4------------------------------5--------------------------------|
|-2---------------------------------------------------------------|
|
|
|-------------------------------------------------------------------------|
|-----12h14p12-------12h14p12----------------12h14p12------12h14p12-------|
|----------------------------------------------------------------------13~| 
I
|--14---------14--14---------14--14--14---14---------14--14--------14-----|
|12-------------12-------------12--12---11-------------11------------11---|
|-------------------------------------------------------------------------|
|                .              . . . . .               .             .
|                                                                      2tx
|-------------------------------------------------------------------------|
|-------------------------------------------------------------------------|
|-------------------------------------------------------------------------| 
II
|-7--------------------------------------9---------------------------9-10-|
|-7--------------------------------------7---------------------------7-8--|
|-5-----------------------------------------------------------------------|
                                                      .

Riff H (over solo)                            2tx
|------------------------------------------------|
|------------------------------------------------|
|----------------------------5-4-----------------|
|----9-7-5-4-5----9-7-5-4-5--7-5-7-5-5---2-4-5-7-|
|---10-9-7-5-7---10-9-7-5-7------9-7-4---0-2-3-5-|
|-0------------0------------3--------------------|


Riff I          6tx
|------------------|
|------------------|
|------------------| I
|----/987~---987-5~|
|-7-7-----/7-------|
|------------------|
|
|               4tx
|------------------|
|------------------|
|------------------| II
|------------------|
|-2-2------2-------|
|-0-0/765~-0-765-3~|


Fill 1
|------------|
|------------|
|------------|
|------------|
|-2-9-8-7-5-5|
|-0-7-6-5-3-3|
    . . . .


Riff J                  4tx
|--------------------------|
|--------------------------|
|--------------------------| I
|----11-10-9~----11-10-9-7~|
|-9-9---------9-9----------|
|--------------------------|
|
|               4tx
|------------------|
|------------------|
|------------------| II
|------------------|
|-4-4------4-------|
|-2-2/987~-2-987-5~|


Riff I 4tx


Fill 2
|--------------|
|--------------|
|--------------|
|--------------|
|-4-11-10-9-7-7|
|-2--9--8-7-5-5|
     .  . . .


Riff A 2tx
Riff B 2tx
Riff D 2tx
End.


Check Out Death Warp, With More Transcriptions On It:
http://tiger.towson.edu/~dalvis1
comments
We did not receive enough feedback on this tab! Please rate:
print report bad tab
1 2 3 4 5
I want to post or [tab]
guest
You may want to rate the tab now too:
select rating
Please do not post tabs as comments. Select "correction" instead!