Oops, an error
Loading. Please wait.

Neon Rebels Tab

version 1
version 1

Whole song

Interactive

464 views 1 this week
no commentswrite comment
1 2 3 4 5
please rate
add to favorites
launch autoscroll
font size
0
reset
how to read this tab
guitar tuner
Autoscroll
slow
fast
+/-
esc
set tempo
stop
Help us to improve Ultimate-Guitar.com Take our survey!
×
                        SOILWORK - NEON REBELS
                        From the Album CHAINHEART MACHINE
                        Copyright 2000 NUCLEAR BLAST
                        Version 1.0 - SEPTEMBER 2001

Transcribed by: death8699

For Questions, Comments, Newest Version, or Corrections contact
death8699: at unhollowed@aol.com

Check Out Death Warp, With More Transcriptions On It:
http://www.sorrowsend.com/DeathWarp

Tablature Notation
------------------
.  - palm mute                  /  - slide up to
\  - slide down to              ~  - vibrato
h  - hammer on                  b  - bend
p  - pull off                   Suffixes for bend
ph - pinch harmonic             f - full bend    h - half bend
*  - see comment                r - release      t - tap bend
X  - percussion mute            ~ - vibrato bend
@  - slight palm mute           () - ghost note, sustained note

Tune Gtr to B

NEON REBELS

Intro
|---------------------------------------------------------------|
|---------------------------------------------------------------|
|-------------4/5-----------------------------------------------|Gtr
|-------4/5-------------------------5-----5-----------4-----4---| I
|-2-----------2/3---------------3-3---333---2h3p2-3-2---2-2---2-|
|-0-0-0-2/3-0-----0-0-000-0-000---------------------------------|
|   . .     .     . . ... . ... . .   ...         . .   . .
|
|
|---------------------------------------------------------------|
|---------------------------------------------------------------|
|---------------------------------------------------------------|Gtr
|-----------------------------------5-----5-----------4-----4---| II
|-2-----------------------------3-3---333---2h3p2-3-2---2-2---2-|
|-0-------------------------------------------------------------|
|                               . .   ...         . .   . .
|
|
|---------------------------------------------------------|
|---------------------------------------------------------|
|-------------4/5-----------------------------------------|Gtr
|-------4/5-------------------------5-----5-------4-------| I
|-2-----------2/3---------------3-3---333---2h3p2---5-7-5-|
|-0-0-0-2/3-0-----0-0-000-0-000---------------------3-5-3-|
|   . .     .     . . ... . ... . .   ...
|
|
|---------------------------------------------------------|
|-------------7/8-----------------------------------------|
|-------4/5-------------------------7-----7-------6-------|Gtr
|-------------4/5---------------5-5---555---4h5p4---------| II
|-2-----2/3-----------------------------------------5-7-5-|
|-0-0-0-----0-----0-0-000-0-000---------------------3-5-3-|
    . .     .     . . ... . ... . .   ...


Riff A                                                       1tx
|---------------------------------------------------------------|
|---------------------------------------------------------------|
|-------------4/5-----------------------------------------------|Gtr
|-------4/5-------------------------5-----5-----------4-----4---| I
|-2-----------2/3---------------3-3---333---2h3p2-3-2---2-2---2-|
|-0-0-0-2/3-0-----0-0-000-0-000---------------------------------|
|   . .     .     . . ... . ... . .   ...         . .   . .
|
|
|---------------------------------------------------------|
|---------------------------------------------------------|
|-------------4/5-----------------------------------------|Gtr
|-------4/5-------------------------5-----5-------4-------| I
|-2-----------2/3---------------3-3---333---2h3p2---5-7-5-|
|-0-0-0-2/3-0-----0-0-000-0-000---------------------3-5-3-|
    . .     .     . . ... . ... . .   ...


Riff A.1                                                     1tx
|---------------------------------------------------------------|
|-------------7/8-----------------------------------------------|
|-------4/5-------------------------7-----7-----------6-----6---|Gtr
|-------------4/5---------------5-5---555---4h5p4-5-4---4-4---4-| II
|-2-----2/3-----------------------------------------------------|
|-0-0-0-----0-----0-0-000-0-000---------------------------------|
|   . .     .     . . ... . ... . .   ...         . .   . .
|
|
|---------------------------------------------------------|
|-------------7/8-----------------------------------------|
|-------4/5-------------------------7-----7-------6-------|Gtr
|-------------4/5---------------5-5---555---4h5p4---------| II
|-2-----2/3-----------------------------------------5-7-5-|
|-0-0-0-----0-----0-0-000-0-000---------------------3-5-3-|
    . .     .     . . ... . ... . .   ...


Riff B                                         2tx
|-------------------------------------------------|
|-------------------------------------------------|
|-------------------------------------------------|
|-------------------------------------------------|
|-----------------4-5~-----------/5-4-2---2-------|
|-0-2-0-2-0-2-4-5------0-2-0-2-0--------5---5-4-2-|
          . . . .


Riff A + Riff A.1 2tx


Riff C
|-------------------------------------------------------------------------|
|-------------------------------------------------------------------------|
|-------------------------------------------------------------------------|Gtr
|-------------------------------------------------------------------------| 
I
|-----------5-7---/10-9-7----9-7------------------5-----------5-7-8-7-5---|
|-5---7-8-----------------10-----10-9-7-5---7-8-----4---5-7-8-----------8-|
|                     . . .  . . .  . .                 . . . . . . . . .
|
|                                                                1tx
|-------------------------------------------------------------------|
|-------------------------------------------------------------------|
|-------------------------------------------------------------------|Gtr
|-------------------------------------------------------------------| I
|-----------5-7---/10-9-7----9-7------------------5-----------------|
|-5---7-8-----------------10-----10-9-7-5---7-8-----4---550-550-550-|
                      . . .  . . .  . .                 ... ... ...


Riff C.1 (W/Riff C)
|----------------------------------------------------------------------------|
|----------------------------------------------------------------------------|
|----------------------------------------------------------------------------|Gtr
|-----------7-9--/12-11-9----11-9------------------7-----------7-9-10-9-7----|
|-7--9-10-----------------12------12-11-9-7--9-10----6--7-9-10------------10-|
|----------------------------------------------------------------------------|
|                    .  . .  .  . .  .  .               . . .  . . .  . . .
|
|                                                                1tx
|-------------------------------------------------------------------|
|-------------------------------------------------------------------|
|-------------------------------------------------------------------|Gtr
|----------7-9--/12-11-9----11-9-------------------7----------------| II
|-7--9-10----------------12------12-11-9-7--9-10-----6--------------|
|-------------------------------------------------------550-550-550-|
                    .  . .  .  . .  .  .                ... ... ...


Riff A + Riff A.1 2tx
Riff B 4tx
Riff A + Riff A.1 2tx
Riff C 1tx
Riff C + Riff C.1 1tx
Riff B 4tx


Riff B.1                                       4tx
|-------------------------------------------------|
|-------------------------------------------------|
|-------------------------------------------------|
|------------------------------/3-----------------|
|-------------5-7-5---------------6-5-3---3-------|
|-2-5-2-5-2-5--------2-5-2-5-2----------6---6-5-3-|


Riff A + Riff A.1 1tx
Riff C 1tx
Riff C + Riff C.1 1tx
End.


Check Out Death Warp, With More Transcriptions On It:
http://www.sorrowsend.com/DeathWarp
Suggest correction
Give kudos to tab author, rate the tab!
1 2 3 4 5
comments
print report bad tab
guest
You may want to rate the tab now too:
select rating
Wanna post a correction for this tab? Suggest correction