Oops, an error
Loading. Please wait.

Nerve Tab

version 1
version 1

Whole song

Interactive

12,758 views 3 this week
no commentswrite comment
1 2 3 4 5
1 last vote to show rating
add to favorites
launch autoscroll
font size
0
reset
how to read this tab
guitar tuner
Autoscroll
slow
fast
+/-
esc
set tempo
stop
Help us to improve Ultimate-Guitar.com Take our survey!
×
Author
                             Nerve - Soilwork
-------------------------------------------------------------------------------
Tabbed by:lyonk55
Email:lyon.k55@googlemail.com
-
Tuning: B E A D F# B

INTRO
Synth
e|-------12-------------10-------12-15/17\14\10--19--------15/17\14----------|
B|--12\5-------------------12-----------------------17--17-------------------|
G|-----------9-12/14\11-------9----------------------------------------------|
D|---------------------------------------------------------------------------|  
A|---------------------------------------------------------------------------|
E|---------------------------------------------------------------------------|

Guitar
Repeat x4
e|---------------------------------------------------------------------------|
B|---------------------------------------------------------------------------|
G|---------------------------------------------------------------------------|
D|---------------------------------------------------------------------------|
A|--552-2-552-2-552-552-2-552-2-552-552-2-552-2-552-552-2-552-2-2------------|
E|--330-0-330-0-330-330-0-330-0-330-330-0-330-0-330-330-0-330-0-0------------|
    ... . ... . ... ... . ... . ... ... . ... . ... ... . ... . .

Verse

e|---------------------------------------------------------------------------|
B|---------------------------------------------------------------------------|
G|---------------------------------------------------------------------------|
D|---------------------------------------------------------------------------|
A|-3--2-----3--2-------------3--2-----3--2-----7-5---7-5---7-5---------------|
E|-1--0-----1--0-----15\-----1--0-----1--0--------0-----0--------------------|

Repeat x2
e|---------------------------------------------------------------------------|
B|---------------------------------------------------------------------------|
G|---------------------------------------------------------------------------|
D|---------------------------------------------------------------------------|
A|----5h7--5h7777--5h7777--5h777---------------------------------------------|
E|-------0-------0-------0------75303530-------------------------------------|
                                ........

Pre-chorus

One guitar plays:
e|---------------------------------------------------------------------------|
B|--88888888-101010108888-7777777-88887777---88888888-101010108888-77777777--|
G|---------------------------------------------------------------------------|
D|---------------------------------------------------------------------------|
A|---------------------------------------------------------------------------|
E|---------------------------------------------------------------------------|

Chorus = Intro
Verse: 15th fret slide replaced with pinch harmonic
Pre-chorus

Bridge
e|----------------------------------------------------------------------|
B|----------------------------------------------------------------------|
G|---555---555--555--5--5--55555555--777---777--777--7--7--77774444-----|
D|----------------------------------------------------------------------|
A|---333---333--333--3--3--33333333--555---555--555--5--5--55552222-----|
E|-00---000---00---00-00-00--------00---000---00---00-00-00-------------|
   ..   ...   ...  .. .. ..        ..   ...   ..   .. .. .. 
Repeat x2
e|---------------------------------------------------------------------------|
B|---------------------------------------------------------------------------|
G|---555---555--555--5--5--55557777--999----999--999--9--7--99994444---------|
D|---------------------------------------------------------------------------|
A|---333---333--333--3--3--33335555--777----777--777--7--7--77772222---------|
E|-00---000---00---00-00-00--------00----000---00---00-00-00-----------------|
   ..   ...   ..   .. .. ..        ..    ...   ..   .. .. ..

Solo
e|---------------------------------------------------------------------------|
B|---------------10-12-13-12~---------------10-12-13-------------------------|
G|-9-11-12-11-12--------------9-11-12-11-12----------9~----------------------|
D|---------------------------------------------------------------------------|
A|---------------------------------------------------------------------------|
E|---------------------------------------------------------------------------|

e|---------------------------------------------------------------------------|
B|---------------------------------------------------------------------------|
G|-/12-11-9------9-12-11~--/12-11-9------9-12--------------------------------|
D|----------12-9--------------------12-9------12~----------------------------|
A|---------------------------------------------------------------------------|
E|---------------------------------------------------------------------------|

e|--15p12h15p12-----15p12h15p12-----15p12-----17p12h17p12-----17p12h17p12-----17p12--------|
B|-------------15p12-----------15p12-----15p12-----------15p12-----------15p12-----115p12--|
G|-----------------------------------------------------------------------------------------|
D|-----------------------------------------------------------------------------------------|
A|-----------------------------------------------------------------------------------------|
E|-----------------------------------------------------------------------------------------|

e|---------------------------------------------------------------------------|
B|--15p12-----15p12h15p12-----15p12h15p12-----15p12h15p12-----15~------------|
G|-------14p12-----------14p12-----------14p12-----------14p12---------------|
D|---------------------------------------------------------------------------|
A|---------------------------------------------------------------------------|
E|---------------------------------------------------------------------------|

Intro x9

Let last note ring out

| .  palm mute
| /  slide up
| \  slide down
| h  hammer-on
| p  pull-off
| ~  vibrato
| +  harmonic
| x  Mute note
===============================================================================
Suggest correction
Give kudos to tab author, rate the tab!
1 2 3 4 5
comments
print report bad tab
guest
You may want to rate the tab now too:
select rating
Wanna post a correction for this tab? Suggest correction