Oops, an error
Loading. Please wait.

No More Angels Tab

version 1
version 1

Intro

Whole song

Interactive

2,289 views 1 this week
3 commentsread comments
1 2 3 4 5
poor
x 2
add to favorites
launch autoscroll
font size
0
reset
how to read this tab
guitar tuner
Tab Pro tools
  • play this tab
  • loop segment
  • change instrument
  • show fretboard
  • metronome
Autoscroll
slow
fast
+/-
esc
set tempo
stop
Contributor
Tuning
Tabbers playing skills
D A D F# A D
advanced ++
Tuning-1 and a half step down in drop-d

This was a very weird song to tab. the first riff sound one step down
and the verse sounds one and a half steps down. :S

Intro-

  E |/10-/10/10-10-10-10---------------------------------|
  B |/-x-/x-/x--x--x--x----------------------------------|
  G |/-7-/7-/7--7--7--7----------------------------------|
  D |----------------------------------------------------|
  A |----------------------------------------------------|
  E |----------------------------------------------------|


Gtr1 Riff 1
  E |----------------------------------------------------|
  B |----------------------------------------------------|
  G |------8--8--8--8\7-7-------8--8--8--8-----8--10-----|
  D |------x--x--x--x\x-x-------x--x--x--x-----x--x------|
  A |------6--6--6--6\5-5-------6--6--6--6-----6--8------|4x
  E |1-1-1----------------1-1-1------------1-1-----------|
     pm...               pm....            pm.

Riff 2
Gtr 2- comes in on 3rd time
  E |-----11--11-11-111010------(11-11-11-11----11/18)---|
  B |------x--x--x--x\x-x-------(x--x--x--x-----x)-------|
  G |------8--8--8--8\7-7-------(8--8--8--8-----8)-------|
  D |----------------------------------------------------|
  A |----------------------------------------------------|x2
  E |1-1-1----------------1-1-1-------------1-1----------|
     pm...                pm...

  E |----------------------------------------------------|
  B |----------------------------------------------------|
  G |------8---------------------------------------------|
  D |--5-8---8-5-----------------------------------------|fill on riff1.
  A |6-----------8-6-------------------------------------|
  E |----------------------------------------------------|
     pm...   .

Gtr 1
last one:
  E |----------------------------------------------------|
  B |----------------------------------------------------|
  G |------8--8--8--8-7/8-8------------------------------|
  D |------x--x--x--x-x/x-x------------------------------|
  A |------6--6--6--6-5/6-6------------------------------|
  E |1-1-1-----------------------------------------------|
     pm...
Gtr 2
  E |------11-11-11-11101111-----------------------------|
  B |------x--x--x--x-x/x-x------------------------------|
  G |------8--8--8--8-7/8-8------------------------------|
  D |----------------------------------------------------|
  A |----------------------------------------------------|
  E |1-1-1-----------------------------------------------|
     pm...

Chorus
Gtr 1
  E |----------------------------------------------------|
  B |15-----15-----15-13--13p12--13p12-------------------|
  G |---14-----12----------------------14p12-------------|
  D |----------------------------------------------------|
  A |----------------------------------------------------|
  E |----------------------------------------------------|

Gtr 2
  E |----------------------------------------------------|
  B |----------------------------------------------------|
  G |7---------------------------------------------------|
  D |7------5--------/10---------------------------------|
  A |5------5--------/10-----------10p8---7p5------------|*little pause b4
  E |-------5--------/10-----------10p8---7p5------------|you strum it. 
                      *
Gtr 1
  E |----------------------------------------------------|
  B |15-----15-----15-13--13p12--------13----------------|
  G |---14-----12----------------14h16-------------------|
  D |----------------------------------------------------|
  A |----------------------------------------------------|
  E |----------------------------------------------------|

  E |----------------------------------------------------|
  B |----------------------------------------------------|
  G |7---------------------------------------------------|
  D |7------5--------/10---------------------------------|
  A |5------5--------/10---------------------------------|
  E |-------5--------/10---------------------------------|

Verse
  E |----------------------------------------------------|
  B |----------------------------------------------------|
  G |----------------------------------------------------|
  D |----------------------------------------------------|
  A |15p12---------15p12-----15p12-----15p12-15p12-------|
  E |15p12-0-0-0-0-15p12-0-0-15p12-0-0-15p12-15p12-------|

Chorus
Verse
Intro riff
Chorus
Verse
Intro riff

Pre solo
  E |----------------------------------------------------|
  B |----------------------------------------------------|
  G |-----------------2---3\2----------------------------|
  D |--0h3---2h5----3---3-----3--------------------------|
  A |1-----3-----5--------------5------------------------|
  E |----------------------------------------------------|

  E |----------------------------------------------------|
  B |---------------------6------------------------------|
  G |-----------------7-----7----------------------------|
  D |--0h3---2h5----7---7-----7--------------------------|
  A |1-----3-----5--------------5------------------------|
  E |----------------------------------------------------|

  E |----------------------------------------------------|
  B |----------------------------------------------------|
  G |-----------------2---3\2----------------------------|
  D |--0h3---2h5----3---3-----3--------------------------|
  A |1-----3-----5--------------5------------------------|
  E |----------------------------------------------------|

  E |----------------------------------------------------|
  B |----------------------------------------------------|
  G |----------------------------------------------------|
  D |--0h3---2h5-----------------------------------------|
  A |1-----3-----5---------------------------------------|
  E |----------------------------------------------------|

Solo
Backup gtr
  E |------------------------------------------------------|
  B |------------------------------------------------------|
  G |-------------5---5-----5/7----------------------------|
  D |-0-----3-----5---5-5-5-5/7----0-----3-----5--5-5-3-3-3|
  A |-0-----3-----3---3-3-3-3/5----0-----3-----5--5-5-3-3-3|x2
  E |\0-0-0-3-0-0--------------0-0-0-0-0-3-0-0-5--5-5-3-3-3|
        pm.   ...       ...    ...   ...   ...

  E |----------------------------------------------------|
  B |----------------------------------------------------|
  G |----------------------------------------------------|
  D |0-----2-----3--3-----3-3----------------------------|
  A |0-----2-----3--3-----3-3----------------------------|x4
  E |0-0-0-2-0-0-3--3-0-0-3-3-0-0------------------------|
      pm..   ...      ...     ...
Lead gtr
  E |----------------------------------------------------|
  B |13h15-15-13h15-15-13-15-15-15-15-15-15-15\8~--------|
  G |------------------------------------------7~--------|
  D |----------------------------------------------------|
  A |----------------------------------------------------|
  E |----------------------------------------------------|

       (some sort of effect???)
  E |----------------------------------------------------|
  B |6h8p6h8-6+6+----------------------------------------|
  G |------------9+9+9+5+7+5+7~--------------------------|
  D |----------------------------------------------------|
  A |----------------------------------------------------|
  E |----------------------------------------------------|

  E |10h13-12-13-13-10h13-12-13-13-10-13-13--------------|
  B |----------------------------------------------------|
  G |----------------------------------------------------|
  D |----------------------------------------------------|
  A |----------------------------------------------------|
  E |----------------------------------------------------|

     t        t
  E |17p13p10-17p13p10h13p10\8h10p8\7h8p7\5h7p5---9^-9^~-|
  B |-------------------------------------------8--------|
  G |----------------------------------------------------|
  D |----------------------------------------------------|
  A |----------------------------------------------------|
  E |----------------------------------------------------|

The rest of the stuff is rather HARD, sorry... it's a start...


Everything else is mostly the same,
last riff:
  E |----------------------------------------------------|
  B |----------------------------------------------------|
  G |----------------------------------------------------|
  D |------7--7-------8--8-----------0-0-----------------|
  A |------7--7-------8--8-----------0-0-----------------|
  E |0-3-0-7--7-0-3-0-8--8-0-0-0-000-0-0-----------------|
comments
We did not receive enough feedback on this tab! Please rate:
print report bad tab
1 2 3 4 5
3 comments total.
0 reply
saberrocks wrote on December 24 2008, 05:20 pm

Okay, so what's the tuning now then?
First, it is Open D, then it is one and a half down in drop D, which would make drop B, and then in the actual tab it's standard.
I'm kinda confused now...:s

0 reply
breadtruck wrote on November 2 2011, 11:43 am

Mate...no...

Soilwork play in B Standard. I don't really know what tuning you are going for with this tab as it's all over the place. If by "1 and a half step down in drop-d" you mean Drop B, even still the tab is wrong.

1 star buddy. Sorry but this is all over the place.

0 reply
himaru12 wrote on July 11 2014, 07:55 am

Lack of accuracy.

I want to post or [tab]
guest
You may want to rate the tab now too:
select rating
Please do not post tabs as comments. Select "correction" instead!