Oops, an error
Loading. Please wait.

Sadistic Lullabye Tab

version 1
version 1

Whole song

Interactive

1,398 views 6 this week
1 commentread comment
1 2 3 4 5
excellent!
x 1
add to favorites
launch autoscroll
font size
0
reset
how to read this tab
guitar tuner
Tab Pro tools
  • play this tab
  • loop segment
  • change instrument
  • show fretboard
  • metronome
Autoscroll
slow
fast
+/-
esc
set tempo
stop
                         SOILWORK - SADISTIC LULLABYE
                       From the Album STEELBATH SUICIDE
                      Copyright 1998 (Listenable Records)

                          Version 1.0 - April 2001

Transcribed by: Chris Ninman

For Questions, Comments, Newest Version, or Corrections contact
       Chris Ninman at:       snowballingblood@hotmail.com

Check Out DEATH WARP, With More Transcriptions On It:
               http://www.wam.umd.edu/~ekubica

.  - palm mute                    /  - slide up to
\  - slide down to                ~  - vibrato
h  - hammer on                    b  - bend
p  - pull off                          Suffixes for bend
ph - pinch harmonic                     f - full bend    h - half bend
*  - see comment                        r - release      t - tap bend
X  - percussion mute                    ~ - vibrato bend
@  - slight palm mute             () - ghost note, sustained note
"  - tremolo pick until next note  sh - semi harmonic

Tune to B (B,E,A,D,F#,B)

Riff 1 (1 time)
|---------------------------------------------------------|
|---------------------------------------------------------|
|---------------------------------------------------------|both 
|----------------------------14---------------------------| gtrs
|-2---10-9-12-10-14-12-15--14-------10-9-12-1010\55553333-|
|-0--0--0-0--0--0--0--0----------888--8-8--8---8\33331111-|
|    .  . .  .  .  .  .          ...  . .  .     ........


Riff 2 (1 time)
|---------------------------------------------------------|
|---------------------------------------------------------|
|---------------------------------------------------------|gtr
|----------------------------14---------------------------| 1
|-2---10-9-12-10-14-12-15--14-------10-9-12-1010\55553333-|
|-0--0--0-0--0--0--0--0----------888--8-8--8---8\33331111-|
|    .  . .  .  .  .  .          ...  . .  .     ........
|---------------------------------------------------------|
|---------------------------------------------------------|
|---------------------------------------------------------|gtr
|----------------------------10---------------------------| 2
|-2----7-5--9--7-10--9-12--10--------7-5--9-7----55553333-|
|-0--0--0-0--0--0--0--0----------888--8-8--8---8\33331111-|
     .  . .  .  .  .  .          ...  . .  .     ........

Repeat Riff 1 (1 time)
Repeat Riff 2 (1 time)

Riff 3 (4 times)
|-----------------|
|-----------------|
|-----9---7-------|both
|-2---9---5---5---| gtrs
|-2---7---5---5---|
|-0-----------3---|

Repeat Riff 1 (1 time)
Repeat Riff 2 (1 time)
Repeat Riff 3 (4 times)

Riff 4 (2 times)
|---121415121415121415121415121415~----141517141517141517141517141517~--|
|-----------------------------------------------------------------------|
|-----------------------------------------------------------------------|gtr
|-----------------------------------------------------------------------| 1
|-----------------------------------------------------------------------|
|-----------------------------------------------------------------------|
|
|-----------------------------------------------------------------------|
|-----------------------------------------------------------------------|
|-----------------------------------------------------------------------|gtr
|-----------------------------------------------------------------------| 2
|-2----------------------------------0----------------------------------|
|-0----------------------------------2----------------------------------|

Riff 4 continued
|---151719151719151719151719151719~----171920171920---/24----201917~----|
|-----------------------------------------------------------------------|
|-----------------------------------------------------------------------|gtr
|-----------------------------------------------------------------------| 1
|-----------------------------------------------------------------------|
|-----------------------------------------------------------------------|
|
|-----------------------------------------------------------------------|
|-----------------------------------------------------------------------|
|-----------------------------------------------------------------------|gtr
|-----------------------------------------------------------------------| 2
|-5----------------------------------7----------------------------------|
|-3----------------------------------5----------------------------------|

Repeat Riff 1 (1 time)
Repeat Riff 2 (1 time)
Repeat Riff 3 (4 times)
Repeat Riff 4 (2 times)

Riff 5 (2 times)
|---------------------------------------------------------|
|---------------------------------------------------------|
|---------------------------------------------------------|gtr
|---------------------------------------------------------| 1
|---------------------------------------------------------|
|-0-----3---2--3--5~---/8---7--3--0-----3---2--3--5~------|
|
|---------------------------------------------------------|
|---------------------------------------------------------|
|---------------------------------------------------------|gtr
|---------------------------------------------------------| 2
|-------7---6--7--9~--/10---9--7--------7---6--7--9~------|
|-0-------------------------------0-----------------------|


Under solo
Riff 6 (2 times)
|--------------------------------------------------------------|
|--------------------------------------------------------------|
|--------------------------------------------------------------|both
|--------------------------------------------------------------| gtrs
|-2-----5---4--5--7----8---7--5--2-----5---4--5--9----10---12--|
|-0-----3---2--3--5----6---5--3--0-----3---2--3--7-----8---10--|
                       .   .  .                

Riff 7 (2 times)
|--------------------------------------------------------------|
|--------------------------------------------------------------|
|--------------------------------------------------------------|both
|-2-----5---4--5--7----8---7--5--2-----5---4--5--9----10---12--| gtrs
|-0-----3---2--3--5----6---5--3--0-----3---2--3--7-----8---10--|
|--------------------------------------------------------------|
                       .   .  .  
End solo

Riff 8 (2 times)
|---------------------------------------------------------------|
|---------------------------------------------------------------|
|---------------------------------------------------------------|both
|---------------------------------------------------------------| gtrs
|------9------9------10-------9----------------9------9------10-|
|-0--7----0-7----0-7-----0--7----0-3~-----0--7----0-7----0-7----|
  .       .      .       .                .       .      .  
Riff 8 continued
|-------------------------|
|-------------------------|
|-------------------------|both 
|-------------------------| gtrs
|------9------10-------12-|
|-0--7----0-8-----0-10----|
  .       .       .

Riff 9 (2 times)
|--------------------------------------|
|--------------------------------------|
|--------------------------------------|both
|--------------------------------------| gtrs
|-2-3-5--23-4--23-4---2-3-5--22-3--4---|
|-0-1-3--01-2--01-2---0-1-3--00-1--2---|
  . . .  .. .  .. .   . . .  ..


First Solo              *gradual
|-12~----10h12--10------15fb----15~--\-/19-17-15-14-15-14tr15--|
|-------------------12-----------------------------------------|
|--------------------------------------------------------------|
|--------------------------------------------------------------|
|--------------------------------------------------------------|
|--------------------------------------------------------------|

  *hold bend on 14
|-12fb--h14-12~--------------------201920--191719--171517--151415-|
|-------------------11hb--9~-----17------15------13------12-------|
|-----------------------------------------------------------------|
|-----------------------------------------------------------------|
|-----------------------------------------------------------------|
|-----------------------------------------------------------------|

Sorry, but no second solo. Maybe someday, maybe not. I won't make any 
promises.
comments
We did not receive enough feedback on this tab! Please rate:
print report bad tab
1 2 3 4 5
1 comment total.
0 reply
Tias wrote on May 11 2006, 03:10 pm

riff 3 is not totally correct, from what i hear. I let you know if something more is diffrent, and dude NICE TAB

I want to post or [tab]
guest
You may want to rate the tab now too:
select rating
Please do not post tabs as comments. Select "correction" instead!