Oops, an error
Loading. Please wait.

Soilworkers Song Of The Damned Tab

version 1
version 1

Intro

Interactive

7,480 views 6 this week
3 commentsread comments
1 2 3 4 5
1 last vote to show rating
add to favorites
launch autoscroll
font size
0
reset
how to read this tab
guitar tuner
×
Best way to learn
"Soilworkers Song Of The Damned"
Autoscroll
slow
fast
+/-
esc
set tempo
stop
"Transcribed By: Robert Harris"
"robsenz@hotmail.com"

        Gtr I

e|-----6------4------2----------------6-----4-----2------------/7p6----|
B|-2h4----2h4----2h4----4p0h2h4---2h4---2h4---2h4---4p0h2h4---------7--|
G|---------------------------------------------------------------------|
D|---------------------------------------------------------------------|
A|---------------------------------------------------------------------|
E|---------------------------------------------------------------------|


e|-7p6-------------------|
B|-----4-2---2-4p2h=7----|
G|-----------------------|
D|-----------------------|
A|-----------------------|
E|-----------------------|


Tablature Legend
----------------
 h   - hammer-on
 p   - pull-off
 /\  - slide into or out of (from/to "nowhere")
 =   - hold bend; also acts as connecting device for hammers/pulls
Suggest correction
Give kudos to tab author, rate the tab!
1 2 3 4 5
comments
print report bad tab
3 comments total.
0 reply
big bear 70 Sep 03, 2004 08:00 PM

yeah thats right

0 reply
spikedemon! 10 Jan 01, 2005 07:00 PM

I think the tuning is is open E... friend of mine told me thats what they play in but ive never tested the theory...

0 reply
Sorniyamiro 30 Oct 28, 2008 09:20 AM

lol... that´s not really fast, but ok once you got the pattern :p

guest
You may want to rate the tab now too:
select rating
Wanna post a correction for this tab? Suggest correction