Oops, an error
Loading. Please wait.

Spirits Of The Future Sun Tab

2,278 views 1 this week
1 commentread comment
1 2 3 4 5
please rate
add to favorites
launch autoscroll
font size
0
reset
how to read this tab
guitar tuner
Tab Pro tools
  • play this tab
  • loop segment
  • change instrument
  • show fretboard
  • metronome
×
Best way to learn
"Spirits Of The Future Sun"
Autoscroll
slow
fast
+/-
esc
set tempo
stop
                    SOILWORK - SPIRITS OF THE FUTURE SUN
                    From the Album THE CHAINHEART MACHINE
                    Copyright 2000 CENTURY MEDIA
                    Version 2.0 - SEPTEMBER 2001

Transcribed by: Chris Ninman
Changes by: death8699

For Questions, Comments, Newest Version, or Corrections contact
Chris Ninman at: snowballingblood@hotmail.com
death8699: unhollowed@aol.com

.  - palm mute                    /  - slide up to
\  - slide down to                ~  - vibrato
h  - hammer on                    b  - bend
p  - pull off                          Suffixes for bend
ph - pinch harmonic                     f - full bend    h - half bend
*  - see comment                        r - release      t - tap bend
X  - percussion mute                    ~ - vibrato bend
@  - slight palm mute             () - ghost note, sustained note
"  - tremolo pick until next note

Tune to B (B,E,A,D,F#,B)

Intro
|---------------------------------------------------14hb~-------------|
|-15fb---r~--13h15-13~-------------15fb---r~--13h15-------------------|
|---------------------------------------------------------------------|Gtr
|---------------------------------------------------------------------| 1
|---------------------------------------------------------------------|
|---------------------------------------------------------------------|
|
|
|---------------------------------------------------------------------|
|---------------------------------------------------------------------|
|---------------------------------------------------------------------|Gtr
|-------------------------------------------------------------9-999-9-| 2
|-2-------------------------2-2-2--2--------------------------7-777-7-|
|-0-------------------------0-0-0--0--------------------------0-000-0-|
|                           . . .                             . ... .
|
|---------------------------------------------------14hb~-------------|
|-15fb---r~--13h15-13~-------------15fb---r~--13h15-------------------|
|---------------------------------------------------------------------|Gtr
|---------------------------------------------------------------------| 1
|---------------------------------------------------------------------|
|---------------------------------------------------------------------|
|
|
|---------------------------------------------------------------------|
|---------------------------------------------------------------------|
|---------------------------------------------------------------------|Gtr
|---------------------------------------------------------------------| 2
|-2-------------------------2-2-2--2----------------------------------|
|-0-------------------------0-0-0--0----------------------------------|
                            . . .

Riff 1a
|-------------------------------------------------------|
|-------------------------------------------------------|
|-------------------------------------------------------|Gtr
|-------------------------------------------------------| 1
|----7-5-7-----3-2-3-----5-3-5-----10-9-7----97---7-----|
|-0---------0---------0---------0---------10---109-1097-|
|                                            ... ... ..
|
|-------------------------------------------------------|
|-------------------------------------------------------|
|-------------------------------------------------------|Gtr
|-------------------------------------------------------| 2
|-2-----------------------------------------------------|
|-0------------------------------------------33333333---|
                                             ........

Riff 1a continued
|-------------------------------------------------------|
|-------------------------------------------------------|
|-------------------------------------------------------|Gtr
|-------------------------------------------------------| 1
|----7-5-7-----3-2-3-----5-3-5-----10-9-7----97---7-----|
|-0---------0---------0---------0---------10---109-1097-|
|                                            ... ... ..
|
|-------------------------------------------------------|
|-------------------------------------------------------|
|-------------------------------------------------------|Gtr
|-------------------------------------------------------| 2
|-2---------2---------2---------2-----------------------|
|-0---------0---------0---------0------------33333333---|
                                             ........

Riff 1b
|-------------------------------------------------------|
|-------------------------------------------------------|
|-------------------------------------------------------|Gtr
|-------------------------------------------------------| 1
|----7-5-7-----3-2-3-----5-3-5-----10-9-7----97---7-----|
|-0---------0---------0---------0---------10---109-1097-|
|                                            ... ... ..
|
|-------------------------------------------------------|
|-------------------------------------------------------|
|-------------------------------------------------------|Gtr
|----5-4-5-----2-0-2-----4-2-4------9-7-5-----75---5----| 2
|------------------------------------------9----97--975-|
|-0---------0---------0---------0-----------------------|
                                              .... ....

Repeat Riff 1b


Riff 2a
|--------------------------------------------------------------|
|--------------------------------------------------------------|
|--------------------------------------------------------------|Gtr
|----------------------7--------------------------------7------| 1
|-7----9-10-/12-----10---9----10-9-7----9-10-/12-----10---9----|
|--------------10~------------------------------10~------------|
|
|--------------------------------------------------------------|
|--------------------------------------------------------------|
|--------------------------------------------------------------|Gtr
|--------------------------------------------------------------| 2
|--------------------0-2-5----------------------------0-2-5----|
|-0----2-3-/5---2~-------------3-2-0----2-3-/5---2~------------|



Riff 2b
|------------------------------------------------------------------|
|----------10~---------10------------------------/10---------10----|
|-9---11-12---------12---11tr12---12-11-9---11-12---------12---11\-|Gtr
|--------------12------------------------------------12~-----------| 1
|------------------------------------------------------------------|
|------------------------------------------------------------------|
|
|------------------------------------------------------------------|
|------------------------------------------------------------------|
|---------------------------------------------------------------7\-|Gtr
|----------------------7------------------------------------7-9----| 2
|-7----9-10-/12-9~--10----5tr6----10-9-7---9-10-/12---9~-----------|
|------------------------------------------------------------------|


Fill 1
|----------|
|----------|
|----------|Gtr
|----------| 1&2
|----------|
|-33332222-|
  ........


Riff 3a                                                * ** * leave out
|-------------------------------------------------------------|2nd time
|-------------------------------------------------------------|
|-------------------------------------------------------------|Gtr
|-------------------------------------------------------------| 1&2
|-7--8--7--------7--8--5--------7--8--7--------5--6--3--------|
|--0--0---0-00-0--0--0---0-00-0--0--0---0-00-0-30-40-1-0-00-0-|
   .  .   . .. .  .  .   . .. .  .  .   . .. .  .  .   . .. .


Repeat Riff 3a


Riff 3b                                                 ****** leave out
|--------------------------------------------------------------|2nd time
|--------------------------------------------------------------|
|--------------------------------------------------------------|Gtr
|--------------------------------------------------------------| 1
|-7--8--7--------7--8--5--------7--8--7--------5--6--3---------|
|--0--0----000000-0--0----000000-0--0----00000030-40-1--000000-|
|  .  .    ...... .  .    ...... .  .    ...... .  .    ......
|
|-------------------------------------------------------------|
|-------------------------------------------------------------|
|-----------------------9\------------------------------------|Gtr
|-6--7--6--------6--7-----------6--7--6-----------------------| 2
|---------------------------------------------5--6--3---------|
|--0--0----000000-0--0----000000-0--0---00000030-40-1--000000-|
   .  .    ...... .  .    ...... .  .   ...... .  .    ......


Repeat Riff 3b


Riff 4
|--------------------------------------------------------------------|
|--------------------------------------------------------------------|
|--------------------------------------------------------------------|Gtr
|--------------------------------------------------------------------| 1
|-------------------------------5---7\-------------------7p5--5-3~---|
|-0-00-0-0-2-22-2-2-3-33-3-3-5-2---2---0-00-0-0-2-22-2-2----87-0-----|
| . .. . . . .. . . . .. . . . .   .   . .. . . . .. . .     .. .
|
|--------------------------------------------------------------------|
|--------------------------------------------------------------------|
|--------------------------------------------------------------------|Gtr
|--------------------------------------------------------------------| 2
|-------------------------------5---7\-------------------7p5--5-3ph~-|
|-0-00-0-0-2-22-2-2-3-33-3-3-5-2---2---0-00-0-0-2-22-2-2----87-0-----|
| . .. . . . .. . . . .. . . . .   .   . .. . . . .. . .    .. .
|
|------------------------------------------------------------------|
|------------------------------------------------------------------|
|------------------------------------------------------------------|Gtr
|------------------------------------------------------------------| 1
|-------------------------------5---7\------------------7p5--5-333-|
|-0-00-0-0-2-22-2-2-3-33-3-3-5-2---2---0-00-0-0-2-22-2-2---87-0----|
| . .. . . . .. . . . .. . . . .   .   . .. . . . .. . .   .. .
|
|------------------------------------------------------------------|
|------------------------------------------------------------------|
|------------------------------------------------------------------|Gtr
|------------------------------------------------------------------| 2
|-------------------------------5---7\------------------7p5--5-333-|
|-0-00-0-0-2-22-2-2-3-33-3-3-5-2---2---0-00-0-0-2-22-2-2---87-0----|
| . .. . . . .. . . . .. . . . .   .   . .. . . . .. . .   .. .


Repeat Riff 3a (2 times)
Repeat Riff 3b (2 times)
Repeat Riff 4 (1 time)
Repeat Riff 2a
Repeat Riff 3a (2 times)
Repeat Riff 3b (2 times)
Repeat Riff 4 (1 time)
Repeat Riff 2a
Repeat Riff 2b


Fill 2
|----------|
|----------|
|----------|Gtr
|----------| 1&2
|----------|
|-33332222-|
  ........


Under solo
Repeat Riff 2a (with Fill 2 at end)
Repeat Riff 2b (with Fill 2 at end)


Riff 5
|----------------------------------------------------|
|----------------------------------------------------|
|----------------------------------------------------|Gtr
|----------------------------------------------------| 1
|-----------2"-3"--5"---7"--------------2"---1"---2"-|
|-0"---2"3"------------------0"---2"3"---------------|
|
|
|----------------------------------------------------|
|----------------------------------------------------|
|------------------------4"--------------------------|Gtr
|---------------4"--5"----------------------------2"-| 2
|------------2"-------------------------2"---5"------|
|-0"---2"3"------------------0"---2"3"---------------|
|
|
|----------|
|----------|
|----------|Gtr
|----------| 1
|-5"-------|
|-----2"---|
|
|
|----------|
|----------|
|----------|Gtr
|-4"-------| 2
|-----5"---|
|----------|


Riff 6
|--------------------------------------------------------|
|--------------------------------------------------------|
|--------------------------------------------------------|
|--------------------------------------------------------|
|-2h4-----4---2---2h4-4-7--2h4-----4-----8\7-----7\5-----|
|-0h2-2-2-2-2-0-0-0h2-2-5--0h2-2-2-2-2-2-6\5-5-5-5\3-3-3-|
      . .   .   .              . .   . .     . .     . .


Repeat Riff 6


Riff 7
|---------------------------------------------------------|
|---------------------------------------------------------|
|---------------------------------------------------------|
|-----------------------5---------------------------------|
|-5/7-----7---5---5/7---3--5/7-----7-----10------10\8-----|
|-3/5-5-5-5-5-3-3-3/5-5----3/5-5-5-5-5-5-8-8-8-8-8 \6-6-6-|
      . .   .   .     .        . .   . .   . . .      . .


Repeat Riff 7
Repeat Riff 6 (2 times)


Riff 3c
|--------------------------------------------------------------|
|--------------------------------------------------------------|
|--------------------------------------------------------------|Gtr
|--------------------------------------------------------------| 1
|-7--8--7--------7--8--5--------7--8--7--------5--6--3---------|
|--0--0----0-00-0-0--0----0-00-0-0--0----0-00-030-40-1--0-00-0-|
|  .  .    . .. . .  .    . .. . .  .    . .. . .  .    . .. .
|
|--------------------------------------------------------------|
|--------------------------------------------------------------|
|--------------------------------------------------------------|Gtr
|--------------------------------------------------------------| 2
|-2--------------2--------------2--------------5--6--3---------|
|-0--------------0--------------0--------------30-40-1--0-00-0-|
                                                .  .    . .. .


Repeat Riff 3a
Repeat Riff 3b (2 times)
Repeat Riff 4 (1 time)
Repeat Riff 1b (2times)
Repeat Riff 2a
Repeat Riff 2b


Ending
|----------|
|----------|
|----------|Gtr
|----------| 1&2
|----------|
|-33332222-|
  .......

Visit MetalTabs.com for more metal tablatur
comments
We did not receive enough feedback on this tab! Please rate:
print report bad tab
1 2 3 4 5
1 comment total.
0 reply
xxEmoxxBoyxx wrote on November 2 2007, 01:18 am

good tab.....can you tab Blind Eye Halo

I want to post or [tab]
guest
You may want to rate the tab now too:
select rating
Please do not post tabs as comments. Select "correction" instead!