Oops, an error
Loading. Please wait.

The Bringer Tab

version 1
version 1

Whole song

Interactive

2,264 views 1 this week
no commentswrite comment
1 2 3 4 5
1 last vote to show rating
add to favorites
launch autoscroll
font size
0
reset
how to read this tab
guitar tuner
×
Best way to learn
"The Bringer"
Autoscroll
slow
fast
+/-
esc
set tempo
stop
                Soilwork - The Bringer
                Transcribed by: Robert Harris
                any mistakes? e-mail me robsenz@hotmail.com


        "Intro"

Gtr I
  E E E E E   E E E E E E E E E E E E  E E E E
|-------------------------------------------------|
|---------3---------------------------------------|
|---6---------6h7p6-4---4---------4h6--7-6-4------|
|-----6---------------7---0-2h4-5------------7----|
|-4-----4-----------------------------------------|
|-------------------------------------------------|


        "Chorus"

  E E E E E E E E E  E E E E E E E E E  E E E E E E E E E   E  E  E  E  E
|-------------------------------------------------------------------------|
|-------------------------------------------------------------------------|
|-4-4-4-4-4-4-4-4-4--6-6-6-6-6-6-6-6-6--7-7-7-7-7-7-7-7-7--11-11-11-11-11-|
|-4-4-4-4-4-4-4-4-4--4-4-4-4-4-4-4-4-4--7-7-7-7-7-7-7-7-7--11-11-11-11-11-|
|-2-2-2-2-2-2-2-2-2--4-4-4-4-4-4-4-4-4--5-5-5-5-5-5-5-5-5---9--9--9--9--9-|
|-----------------------------------------------------------9--9--9--9--9-|


   E  E  E  E
|----------------|
|----------------|
|-11-11-11-11----|
|-11-11-11-11----|
|--9--9--9--9----|
|--9--9--9--9----|


        "Pre-Chorus"

  E E E E E E E E E E E E E E
|--------------------------------|
|--------------------------------|
|--------------------------------|
|--------------------------------|
|--------------------------------|
|-0h1p0-6-0h1-5-0h2h3p0h1-1h3----|


 
Duration Legend
---------------
W - whole; H - half; Q - quarter; E - 8th; S - 16th; T - 32nd; X - 64th; a - acciaccatura
+ - note tied to previous; . - note dotted; .. - note double dotted
Uncapitalized letters represent notes that are staccato (1/2 duration)
Irregular groupings are notated above the duration line
Duration letters will always appear directly above the note/fret number it represents the
duration for.  Duration letters with no fret number below them represent rests.  Multi-
bar rests are notated in the form Wxn, where n is the number of bars to rest for.  Low
melody durations appear below the staff

Tablature Legend
----------------
 h   - hammer-on
 p   - pull-off
 b   - bend
 pb  - pre-bend
 r   - bend release (if no number after the r, then release immediately)
 /\  - slide into or out of (from/to "nowhere")
 s   - legato slide
 S   - shift slide
 - natural harmonic
[n]  - artificial harmonic
n(n) - tapped harmonic
 ~   - vibrato
 tr  - trill
 T   - tap
 TP  - trem. picking
 PM  - palm muting
\n/  - tremolo bar dip; n = amount to dip
 \n  - tremolo bar down
 n/  - tremolo bar up
/n\  - tremolo bar inverted dip
 =   - hold bend; also acts as connecting device for hammers/pulls
 <> - volume swell (louder/softer)
 x   - on rhythm slash represents muted slash
 o   - on rhythm slash represents single note slash

Misc Legend
-----------
 |  - bar
||  - double bar
||o - repeat start
o|| - repeat end
*|  - double bar (ending)
 :  - bar (freetime)
 $  - Segno
 &  - Coda
Suggest correction
Give kudos to tab author, rate the tab!
1 2 3 4 5
comments
print report bad tab
guest
You may want to rate the tab now too:
select rating
Wanna post a correction for this tab? Suggest correction