Oops, an error
Loading. Please wait.

Weapon Of Vanity Tab

version 1
version 1

Whole song

Interactive

2,523 views 1 this week
1 commentread comment
1 2 3 4 5
please rate
add to favorites
launch autoscroll
font size
0
reset
how to read this tab
guitar tuner
Autoscroll
slow
fast
+/-
esc
set tempo
stop
Help us to improve Ultimate-Guitar.com Take our survey!
×
Soilwork: Weapon Of Vanity

Transcribed by: Andrew Zara (disturbedfreak0520@yahoo.com)

Date last modified: April 18, 2009

PLEASE DO NOT COPY THIS TAB TO ANOTHER SITE
WITHOUT AUTHORS' PERMISSION. THANK YOU.

Tuning: B Standard (B,E,A,D,F#,B)

Notes: Only main rhythm parts here.

Riff 1
|-------------------------------------------|
|-------------------------------------------|
|-------------------------------------------|
|--------------14------------------14-------|
|-------------------------------------------|
|-12-10-0-12-0----0-12-0-10-0-12-0----12-10-|

|-------------------------------------------|
|-------------------------------------------|
|-------------------------------------------|
|--------------14---------------------------|
|-------------------------------------------|
|-12-10-0-12-0----0-12-0-10-0-12-0-13-12-10-|

|-------------------------------------------|
|-------------------------------------------|
|-------------------------------------------|
|--------------14------------------14-------|
|-------------------------------------------|
|-12-10-0-12-0----0-12-0-10-0-12-0----12-10-|

|--------------------------------|
|--------------------------------|
|--------------------------------|
|--------------------------7-7-7-|
|---8\7---8\7---5----------5-5-5-|
|-0-6\5-0-6\5-0-3--0-3-0-3-------|
  *     *     *    * * * *

Riff 2
|---------------------------------------|
|---------------------------------------|
|-9-9-9-9-9-9-----9--9--9--9--9--9------|
|-9-9-9-9-9-9-x-x-10-10-10-10-10-10-x-x-|
|-7-7-7-7-7-7-x-x-7--7--7--7--7--7--x-x-|
|-------------x-x-------------------x-x-|

Play Riff 1   "They play as divined immortal sons..."
Play Riff 2   "Deceivement, believe it, can you feel it flow?"

Riff 2a   "As a weapon of your vanity..."
|----------|
|----------|
|----------|
|-------7~-|
|---9---7~-|
|-0-7-0-5~-|
  *   *

Riff 3   "They crave for a soulaching desire..."
|-----------------------------------------------------|
|-----------------------------------------------------|
|-------12-------11---------------12-------11---------|
|-------10-------10-9\7-7-7-------10-------10-9\7-7-7-|
|-------7--------7--7\5-5-5-------7--------7--7\5-5-5-|
|-0-0-0----0-0-0------------0-0-0----0-0-0------------|
  * * *    * * *            * * *    * * *

|--------------------------------------------------------|
|--------------------------------------------------------|
|--------------------------------------------------------|
|------------------------------------------------9\7-7-7-|
|-10--10-10-10-10--10-10-10-10--7-7-7-7--7-7-7-7-7\5-5-5-|
|-8---8--8--8--8---8--8--8--8---5-5-5-5--5-5-5-5---------|
                                * * *

Play Riff 1    "So now, let me get a single minute..."
Play Riff 2    "Deceivement, believe it, can you feel it flow?"
Play Riff 2a
Play Riff 3    "They crave for a soulaching desire..."

Riff 4
|------------------------------------------------------------|
|------------------------------------------------------------|
|------------------------------------------------------------|
|------------------------------------------------------------|
|---7-5--------------------------7-5-----------------------5-|
|-0-----0-8-7-0-7-5-0-3-0-2-3--0-----0-8-7-0-7-5-0-3-0-2-3---|

|----------------------------------------------------------|
|----------------------------------------------------------|
|----------------------------------------------------------|
|--------------------------------7-7-7-7-7---7-7-7-7-------|
|---7-5--------------------------5-5-5-5-5---4-4-4-4---5-5-|
|-0-----0-8-7-0-7-5-0-3-0-2-3--0-----------0---------0-3-3-|
                                           *         *

Riff 5
|------------------------------------------------------------------|
|------------------------------------------------------------------|
|------------------------------------------------------------------|
|---9\7-----------------------------9\7--------------------------7-|
|---7\5---10\9---9\7---5\4---4/5----7\5---10\9---9\7---5\4---4/5-5-|
|-0-----0-8\\7-0-7\5-0-3\2-0-2/3--0-----0-8\\7-0-7\5-0-3\2-0-2/3---|
        *      *     *     *            *      *     *     *

|-------------------------------------------------------------|
|-------------------------------------------------------------|
|-------------------------------------------------------------|
|---9\7-----------------------------7-7-7-7-7---7-7-7-7-------|
|---7\5---10\9---9\7---5\4---4/5----5-5-5-5-5---4-4-4-4---5-5-|
|-0-----0-8\\7-0-7\5-0-3\2-0-2/3--0-----------0---------0-3-3-|
        *      *     *     *                  *         *

Play Riff 2
Play Riff 2a
Play Riff 3   "They crave for a soulaching desire..."
Play Riff 1

There you go, sounds accurate to me.
Suggest correction
Give kudos to tab author, rate the tab!
1 2 3 4 5
comments
print report bad tab
1 comment total.
0 reply
PaulJ90 24 wrote on November 17 2014, 06:11 pm

This is one of my favorite Soilwork songs. Props for tabbing it \m/

guest
You may want to rate the tab now too:
select rating
Please do not post tabs as comments. Select "correction" instead!