Oops, an error
Loading. Please wait.

Wherever Thorns May Grow Tab

1,616 views 1 this week
1 commentread comment
1 2 3 4 5
poor
x 3
add to favorites
launch autoscroll
font size
0
reset
how to read this tab
guitar tuner
Tab Pro tools
  • play this tab
  • loop segment
  • change instrument
  • show fretboard
  • metronome
Autoscroll
slow
fast
+/-
esc
set tempo
stop
Contributor
Difficulty
intermediate
Wherever Thorns May Grow
Soilwork

i havent seen a tab for this anywhere so i decided to put one on here. i'm not entirely 
about some of the lead parts, including the solo.

drop C tuning (C G C F A D)


intro
gtr 1
|----------7h97h9-----------------------|
|-9h109h10--------9h109h10-7h97h97h97h9-|
|---------------------------------------| x4
|---------------------------------------|
|---------------------------------------|
|---------------------------------------|


next part (repeat entire thing twice)
gtr 1
|-----------------------------------------------|
|-----------------------------------------------|
|-14-14-14-14-14-14-14-11--11-11-11-11-11-11-11-|
|-x--x--x--x--x--x--x--x---x--x--x--x--x--x--x--|
|-12-12-12-12-12-12-12-9---9--9--9--9--9--9--9--|
|-----------------------------------------------|
|
|                                   x2
|gtr 2
|--------------------------------|
|--------------------------------|
|--------------------------------|
|-7-7-7-7-7-7-7-4--4-4-4-4-4-4-4-|
|-7-7-7-7-7-7-7-4--4-4-4-4-4-4-4-|
|-7-7-7-7-7-7-7-4--4-4-4-4-4-4-4-|

gtr 1
|--------------------------------|
|--------------------------------|
|-7-7-7-7-7-7-7-9--9-9-9-9-9-9-9-|
|-x-x-x-x-x-x-x-x--x-x-x-x-x-x-x-|
|-5-5-5-5-5-5-5-7--7-7-7-7-7-7-7-|
|--------------------------------|
|
|                               x2
|gtr 2
|--------------------------------|
|--------------------------------|
|--------------------------------|
|-0-0-0-0-0-0-0-2--2-2-2-2-2-2-2-|
|-0-0-0-0-0-0-0-2--2-2-2-2-2-2-2-|
|-0-0-0-0-0-0-0-2--2-2-2-2-2-2-2-|


verse
gtr 1
|---------|----------------------|
|---------|----------------------|
|---------|----------------------|
|---------|-------0-0------------|
|-7-9-9-9-|x7-----0-0------------|
|---------|-------0-0------------|
|              pm|.|
|                               x2
|gtr 2
|--------------------------------|
|--------------------------------|
|--------------------------------|
|-4-4-4-4----4-4-4-4---0-0-------|
|-4-4-4-4----4-4-4-4---0-0-------|
|-4-4-4-4----4-4-4-4---0-0-------|
                    pm|.|


|gtr 1
|---------|----------------------|
|---------|----------------------|
|---------|----------------------|
|---------|-------0-0------------|
|-7-9-9-9-|x7-----0-0------------|
|---------|-------0-0------------|
|              pm|.|
|                               x2
|gtr 2
|---------|----------------------|
|---------|----------------------|
|---------|----------------------|
|-2-4-4-4-|-------0-0------------|
|-2-4-4-4-|x7-----0-0------------|
|-2-4-4-4-|-------0-0------------|
|              pm|.|

bridge
|gtr 1
|----------------------------------------|
|----------------------------------------|
|-9-9-9-9-9-9-9-11-11-11-11-11-11-11-11--|
|-x-x-x-x-x-x-x-x--x--x--x--x--x--x--x---|
|-7-7-7-7-7-7-7-9--9--9--9--9--9--9--9---|
|----------------------------------------|
|
|
|gtr 2
|----------------------------------|
|----------------------------------|
|----------------------------------|
|-2-2-2-2-2-2-2-4--4-4-4-4-4-4-4---|
|-2-2-2-2-2-2-2-4--4-4-4-4-4-4-4---|
|-2-2-2-2-2-2-2-4--4-4-4-4-4-4-4---|

|gtr 1
|-------------------------------------------|
|-------------------------------------------|
|-14-14-14-14---14-14-14---14-14-14---14-14-|
|-x--x--x--x----x--x--x----x--x--x-----x-x--|
|-12-12-12-12---12-12-12---12-12-12---12-12-|
|-------------------------------------------|
|
|
|gtr2
|---------------------------------|
|---------------------------------|
|---------------------------------|
|-7-7-7-7---7-7-7---7-7-7---7-7---|
|-7-7-7-7---7-7-7---7-7-7---7-7---|
|-7-7-7-7---7-7-7---7-7-7---7-7---|

repeat once more, but replace the part above with:
|gtr 1
|--------------------------|
|--------------------------|
|-14-14-14-14-14-14-14-11--|
|-x--x--x--x--x--x--x--x---|
|-12-12-12-12-12-12-12-9---|
|--------------------------|
|
|
|gtr 2
|------------------|
|------------------|
|------------------|
|-7-7-7-7-7-7-7-4--|
|-7-7-7-7-7-7-7-4--|
|-7-7-7-7-7-7-7-4--|


in the silence afterwards, this is played
|gtr 1
|---------------------------|
|---------------------------|
|-14-15-15-15-12-14-14-14---|
|---------------------------|
|---------------------------|
|---------------------------|


chorus
|gtr 1
|-----------------------------------------------|
|-----------------------------------------------|
|-14-14-14-14-14-14-14-11--11-11-11-11-11-11-11-|
|-x--x--x--x--x--x--x--x---x--x--x--x--x--x--x--|
|-12-12-12-12-12-12-12-9---9--9--9--9--9--9--9--|
|-----------------------------------------------|
|
|                                   x2
|gtr 2
|--------------------------------|
|--------------------------------|
|--------------------------------|
|-7-7-7-7-7-7-7-4--4-4-4-4-4-4-4-|
|-7-7-7-7-7-7-7-4--4-4-4-4-4-4-4-|
|-7-7-7-7-7-7-7-4--4-4-4-4-4-4-4-|

gtr 1
|--------------------------------|
|--------------------------------|
|-7-7-7-7-7-7-7-9--9-9-9-9-9-9-9-|
|-x-x-x-x-x-x-x-x--x-x-x-x-x-x-x-|
|-5-5-5-5-5-5-5-7--7-7-7-7-7-7-7-|
|--------------------------------|
|
|                               x2
|gtr 2
|--------------------------------|
|--------------------------------|
|--------------------------------|
|-0-0-0-0-0-0-0-2--2-2-2-2-2-2-2-|
|-0-0-0-0-0-0-0-2--2-2-2-2-2-2-2-|
|-0-0-0-0-0-0-0-2--2-2-2-2-2-2-2-|

fill thing
gtr 1
|---------|----------------------|
|---------|----------------------|
|---------|----------------------|
|---------|-------0-0------------|
|-7-9-9-9-|x7-----0-0------------|
|---------|-------0-0------------|
|              pm|.|
|                               x2
|gtr 2
|--------------------------------|
|--------------------------------|
|--------------------------------|
|-4-4-4-4----4-4-4-4---0-0-------|
|-4-4-4-4----4-4-4-4---0-0-------|
|-4-4-4-4----4-4-4-4---0-0-------|
                    pm|.|


verse 2
|gtr 1
|---------|----------------------|
|---------|----------------------|
|---------|----------------------|
|---------|-------0-0------------|
|-7-9-9-9-|x7-----0-0------------|
|---------|-------0-0------------|
|              pm|.|
|                               x2
|gtr 2
|---------|----------------------|
|---------|----------------------|
|---------|----------------------|
|-2-4-4-4-|-------0-0------------|
|-2-4-4-4-|x7-----0-0------------|
|-2-4-4-4-|-------0-0------------|
|              pm|.|


bridge

chorus


breakdown (x2)
|both guitars
|---------------------------|
|---------------------------|
|---------------------------|
|-4--4-4-4-4-----4--4-4-4-4-|
|-4--4-4-4-4-----4--4-4-4-4-|
|-4--4-4-4-4-----4--4-4-4-4-|
  pm|.....|        |.....|

both guitars
|---------------------------|
|---------------------------|
|---------------------------|
|-0--0-0-0-0-----0--0-0-0-0-|
|-0--0-0-0-0-----0--0-0-0-0-|
|-0--0-0-0-0-----0--0-0-0-0-|
  pm|.....|        |.....|


prelude to solo (x2)
both guitars
|---------------------------------|
|---------------------------------|
|---------------------------------|
|--7-7-7-7-7-7-7-4-4-4-4-4-4-4-4--| x2
|--7-7-7-7-7-7-7-4-4-4-4-4-4-4-4--|
|--7-7-7-7-7-7-7-4-4-4-4-4-4-4-4--|
pm|.............................|

|---------------------------------|
|---------------------------------|
|---------------------------------|
|--0-0-0-0-0-0-0-2-2-2-2-2-2-2-2--| x2
|--0-0-0-0-0-0-0-2-2-2-2-2-2-2-2--|
|--0-0-0-0-0-0-0-2-2-2-2-2-2-2-2--|


guitar solo

|-------------------------------------------------------|
|-13p12p10--------13p12p10--------13p12p10----------14b-|
|---------13p12p10--------13p12p10--------13p12p10------|
|-------------------------------------------------------|
|-------------------------------------------------------|
|-------------------------------------------------------|
|
|--------------------------------------------------------|
|-13-12-10~--12-10-----------------9-10-12-14-12-10-12~\-|
|------------------13-12-10-9-12~------------------------|
|--------------------------------------------------------|
|--------------------------------------------------------|
|--------------------------------------------------------|

chorus


that's it, and i know i for sure messed up the solo and i left out some of the lead 
but that's for you to figure out ;) peace
comments
We did not receive enough feedback on this tab! Please rate:
print report bad tab
1 2 3 4 5
1 comment total.
0 reply
DivinityX wrote on July 16 2010, 02:45 pm

It's so bad I'm not even sure it's the right song.

I want to post or [tab]
guest
You may want to rate the tab now too:
select rating
Please do not post tabs as comments. Select "correction" instead!