Oops, an error
Loading. Please wait.

Wings Of Domain Tab

version 1
version 1

Whole song

Interactive

415 views 1 this week
no commentswrite comment
1 2 3 4 5
please rate
add to favorites
launch autoscroll
font size
0
reset
how to read this tab
guitar tuner
Tab Pro tools
  • play this tab
  • loop segment
  • change instrument
  • show fretboard
  • metronome
×
Best way to learn
"Wings Of Domain"
Autoscroll
slow
fast
+/-
esc
set tempo
stop
                     SOILWORK - Wings of Domain
                       From "Steelbath Suicide"
                              Version 1.0

Transcribed by: Mike Iuzzolino

For Questions, Comments, Corrections, Requests
please contact at metalunix@yahoo.com

.  - palm mute                          /  - slide up to
\  - slide down to                      ~  - vibrato
"  - tremelo picking       // with p above - Pick Scape
p  - pull off                           h  - hammer-on
r  - release bend                       b  - bend


Soilwork - A Predator's Portrait

Tune 2.5 steps down (BEADGB)



  0.00 - 0.13        Intro
|-------------------------------------------------|
|-------------------------------------------------|
|-----------------------------------------------9-|
|--6-7-6---6----6-7-6-----6-7-6---6----6-7-6------|
|--------8---8--------7---------8---8--------7----|
|-------------------------------------------------|
|
|
|-------------------------------------------------|
|-------------------------------------------------|
|-------------------------------------------------|
|--2----------------------2-----------------------|
|--2----------------------2-----------------------|
|--0----------------------0-----------------------|


Inrto - 1x

  0.14 - 0.26            Riff A1       (x2)
|-----------------------------------------------------------------------
|-----------------------------------------------------------------------
|----------------------------------------------------h-p----------------
|--9-----------7-----------9-----------7------------6-7-6---6-----------
|---------------------------------------------------------8---8-7-5-7-8-
|----0-0-0-0-0---0-0-0-0-0---0-0-0-0-0---0-0-0-0-0----------------------


                              P1   P2
----------------------------|----|----|
----------------------------|----|----|
---------h-p----------------|----|-4~-|
6-7-6-7-6-7-6---6-----------|----|----|
--------------8---8-7-5-7-8-|-5~-|----|
----------------------------|----|----|
----------------------------|----|----|




  0.26 - 0.38             Riff A2       (x2)
|-----------------------------------------------------------------------
|-----------------------------------------------------------------------
|-----------------------------------------------------------------------
|-6------------3-----------6-----------3------------6-7-6---6-----------
|---------------------------------------------------------8---8-7-5-7-8-
|----0-0-0-0-0---0-0-0-0-0---0-0-0-0-0---0-0-0-0-0----------------------
|
|-----------------------------------------------------------------------
|-----------------------------------------------------------------------
|---------------------------------------------------4-5-4---4-----------
|---------------------------------------------------------6---6-5-3-5-6-
|-----------------------------------------------------------------------
|-----------------------------------------------------------------------

                              P1   P2
----------------------------|----|----|
----------------------------|----|----|
----------------------------|----|-4~-|
6-7-6-7-6-7-6---6-----------|----|----|
--------------8---8-7-5-7-8-|-5~-|----|
----------------------------|----|----|


----------------------------|----|----|
----------------------------|----|-2~-|
4-5-4-5-4-5-4---4-----------|----|----|
--------------6---6-5-3-5-6-|-3~-|----|
----------------------------|----|----|
----------------------------|----|----|






    Fill 1            Riff A3
0:38 - .50       0:51      P1          P2
|-------------|--------|---------|-------------|
|-------------|--------|---------|-------------|
|-------------|--5---7-|--2---5--|--9--9--9--9-|
|----------0"-|--5---7-|--2---5--|--9--9--9--9-|
|-3"---2"-----|--3---5-|--0---3--|--7--7--7--7-|
|-------------|--------|---------|-------------|
|                                      .  .  .
|
|-------------|--------------------------------|
|-------------|--------------------------------|
|-------------|------Same----------------------|
|-10"--9"-12"-|-----------as-------------------|
|-------------|--------------above-------------|
|-------------|--------------------------------|


Riff A1  1:02 - 1.14
Riff A2  1:14 - 1.26
Fill 1   1.26 - 1.37
Riff A2 (x2) 1.38 - 2.01


 Solo        2:02                      2:09
|--------------------------------------20b~r--20-19-15--------14-15-14-------------|
|---h---------h--------------------------------------------16----------16-14-16----|
|--9-11-7-6--6-7-4---2-4-6-7-6-4------------------------//-------------------------|
|----------------------------------------------------------------------------------|
|----------------------------------------------------------------------------------|
|----------------------------------------------------------------------------------|
|
|                 Play this 2 times for solo above                    P1
|-------------------------------------------------------------|--------------------|
|-------------------------------------------------------------|--------------------|
|-----------------------------------------5---------5---------|-7---------7--------|
|-2---------2---------5---------5---------5---------5---------|-7---------7--------|
|-2---------2---------5---------5---------3-3-3-3-3-3-3-3-3-3-|-5-5-5-5-5-5-5-5-5-5|
|-0-0-0-0-0-0-0-0-0-0-3-3-3-3-3-3-3-3-3-3---------------------|--------------------|


    2:13 - 2:15
--------------------|
--------------------|
--------------------|
--------------------|
--------------------|
--------------------|

      P2
--------------------|
--------------------|
-7-5-4-2-5-4-2-2----|
-7-5-4-2-5-4-2-0----|
-5-3-2-0-3-2-0------|
--------------------|
 . . . . . . . .



For the rest of guitar two fore solo, play Riff A3 under solo

 2:16                                                                          2:22 - 2:27
|----h--p-----------------------------h--p------------p----------------------|-------------|
|--11-12-11---11/12--12/14--14/16---12-14-11--14br--12-11---p----------------|-------------|
|---------------------------------------------------------14-12-10-----------|----???------|
|------------------------------------------------------------------14-12-10--|-------------|
|----------------------------------------------------------------------------|-------------|
|----------------------------------------------------------------------------|-------------|




 P         2:27 - 2:29                                     2:29 - 2:39
|--19-20-22-20-19-20-22-20-19-20-22-20-19-20-22-20-19----|-------------|
|--------------------------------------------------------|-------------|
|/\------------------------------------------------------|-------------|
|/\------------------------------------------------------|-------------|
|--------------------------------------------------------|-------------|
|--------------------------------------------------------|-------------|


Fill 1 2:39 - 2:50
Riff 3 (x2) 2:51 - 3.15

Visit MetalTabs.com for more metal tablatur
comments
We did not receive enough feedback on this tab! Please rate:
print report bad tab
1 2 3 4 5
I want to post or [tab]
guest
You may want to rate the tab now too:
select rating
Please do not post tabs as comments. Select "correction" instead!