Oops, an error
Loading. Please wait.

Art Of Distortion Bass Tab

10 views 1 this week
no commentswrite comment
1 2 3 4 5
3 more votes to show rating
add to favorites
launch autoscroll
font size
0
reset
guitar tuner
Autoscroll
slow
fast
+/-
esc
set tempo
stop
Help us to improve Ultimate-Guitar.com Take our survey!
×
Author
Difficulty
intermediate
About this tab version
Its an original of our song. Was this info helpful? Yes No
[Intro] (3/4)

G|-----------------------------------------------------------------------------------------------------|
D|-----------------------------------------------------------------------------------------------------|
A|------------------5--4---------------5--4--------------5/7--------------5--4-------------------------|
E|3--------2---3--3------0--------3--3------0---2---3--3-----0---2---3--3------0---2---3--3------0---2-|
B|------------------------------------------------------------------------------------------0--2-------|



[Verse]

G|-----------------------------------------------------------------------------------------------------------|
D|-----------------------------------------------------------------------------------------------------------|
A|---9-7-----------7-5------------5-4---------------------9-7-----------7-5------------5-4-----------4-2--2-1|
E|7------3---3/5-5------2---2/3-3-----0---0h2-2--3-2---7------3---3/5-5------2---2/3-3-----0---0h2-2---------|
B|-----------------------------------------------------------------------------------------------------------|


G|-----------------------------------------------------|
D|-----------------------------------------------------|(X2) (Repeat this part only)
A|---9-7-----------7-5------------5-4------------------|
E|7------3---3/5-5------2---2/3-3-----0---0h2-2--3-2---|
B|-----------------------------------------------------|


G|-----------------------------------------------------------------------------------------------------------|
D|-----------------------------------------------------------------------------------------------------------|
A|---9-7-----------7-5------------5-4---------------------9-7-----------7-5------------5-4-----------4-2--2-1|
E|7------3---3/5-5------2---2/3-3-----0---0h2-2--3-2---7------3---3/5-5------2---2/3-3-----0---0h2-2---------|
B|-----------------------------------------------------------------------------------------------------------|

G|-----------------------------------------------------------------------------------------------------------|
D|-----------------------------------------------------------------------------------------------------------|
A|---9-7-----------7-5------------5-4---------------------9-7-----------7-5------------5-4-------------------|
E|7------3---3/5-5------2---2/3-3-----0---0h2-2--3-2---7------3---3/5-5------2---2/3-3-----0---0h2-2--3-2----|
B|--------------------------------------------------------------------------------------------------------3-5|

[Chorus]

G|---------------------------------------------------------------------------|
D|---------------------------------------------------------------------------|
A|---------------------------------------------------------------------------|
E|3---3---2---0---3---3--5--7--2---0---3---3---2---0---3---5--7--3--2---0----|
B|---------------------------------------------------------------------------|

G|---------------------------------------------------------------------------|
D|---------------------------------------------------------------------------|
A|-----5------------------5-7---------------5--------------------------------|
E|3--3---3---0---2---3--3------0---2---3--3---3---0---2---3--5-7-3---0---2---|
B|---------------------------------------------------------------------------|


[Verse 2]


G|-------------------------------------------------------|
D|-------------------------------------------------------|
A|---9-7-----------7-5------------5-4--------------------|
E|7------3---3/5-5------2---2/3-3-----0---0h2-2--3-2-----|
B|---------------------------------------------------3-5-|


G|-------------------------------------------------------|
D|-------------------------------------------------------|
A|---9-7-----------7-5------------5-4--------------------|
E|7------3---3/5-5------2---2/3-3-----0---0h2-2--3-2-----|
B|---------------------------------------------------3-2-|

G|------------------------------------------------------|
D|------------------------------------------------------|
A|---9-7-----------7-5------------5-4-----------4-2--2-1|
E|7------3---3/5-5------2---2/3-3-----0---0h2-2---------|
B|------------------------------------------------------|

G|-------------------------------------------------------|
D|-------------------------------------------------------|
A|---9-7-----------7-5------------5-4--------------------|
E|7------3---3/5-5------2---2/3-3-----0---0h2-2--3-2-----|
B|---------------------------------------------------3-5-|

[Chorus 2]

G|---------------------------------------------------------------------------|
D|---------------------------------------------------------------------------|
A|-----5-7----------------------------------5---5/7---------------5---4------|
E|3--3------0---2---3--5-7-3---0---2---3--3---3-----0---2---3---3---3---0---2|
B|---------------------------------------------------------------------------|

G|---------------------------------------------------------------------------|
D|---------------------------------------------------------------------------|
A|---------------------------------------------------------------------------|
E|3--3-5-7---2---0---3--3-5-7---2---0---3--3-5-3---2---0---3--3-5-7---2---0--|
B|---------------------------------------------------------------------------|


[Epic Outro Solo] (4/4)

G|-------------------------------------------------------------------------------------|
D|-------------------------------------------------------------------------------------|
A|-------------------------------------------------------------------------------------|
E|7------7-5-7------7-5-7------7-5-0----2----7------7-5-7------7-5-7------7-5-0----2---|
B|-------------------------------------------------------------------------------------|

G|---------------------------------------------------------------------------|
D|---------------------------------------------------------------------------|
A|----------------------------5-7-5------------------------------------------|
E|7--7-7-7-7-7-7p5-7--7-7-7-7-------7--7-7-7-7-7-7p5-0--0-0-0-2--2-2-2-------|
B|---------------------------------------------------------------------------|

G|---------------------------------------------------------------------------|
D|---------------------------------------------------------------------------|
A|--------------------------------5------------------------------------------|
E|7--7-7-7-7-7-7p5-7--7-7-7-7-5-7---7--7-7-7-7-7-7p5-0--0-0-0-2--2-2-2-------|
B|---------------------------------------------------------------------------|

G|-------------------------------------------------------------------------------------|
D|-------------------------------------------------------------------------------------|
A|----9----------5---------------------------------9----------5-----------5-4-------5-4|
E|7-7---7--0h3-3---3--0-0--0-0-0--2-2--2-2-2-5h7-7---7--0h3-3---5--0-0--0-----0h2-2----|
B|-------------------------------------------------------------------------------------|

G|-------------------------------------------|
D|-------------------------------------------|(X5)
A|------9----------5-----------5-4-------5-4-|
E|5h7-7---7--0h3-3---5--0-0--0-----0h2-2-----|
B|-------------------------------------------|

G|---------------------------------------------|
D|---------------------------------------------|
A|------9----------5-----------5-4-------5-4-0-|
E|5h7-7---7--0h3-3---5--0-0--0-----0h2-2-------|
B|---------------------------------------------|

G|-------------------------------------------------------|
D|-------------------------------------------------------|
A|-------------------------------------------------------|
E|7--7--7--------7--7--7--------7--7--7--------7----7\0--|
B|-------------------------------------------------------|

[Epic Outro Solo 2]

G|-------------------------------------------------------------------------------|
D|-------------------------------------------------------------------------------|
A|--------------[Palm Mutes]-----------------------------------------------------|
E|0h7-----0h3-----0h5-----0h2-----0h3-----0-0-----0h2--2-2-2-2-2-2-2-2-2-2-0-0-0-|
B|-------------------------------------------------------------------------------|

G|--------------------------------------------------------------------------------|
D|--------------------------------------------------------------------------------|
A|---------------[Holds]----------------------------------------------------------|
E|0h7-----0h3-----0h5-----0h2-----0h3-----0-0-----0h2--2-2-2-2-2-2-2-2-2-2-0-0-0-0|
B|--------------------------------------------------------------------------------|

G|---------------------------------------------------------------------------------------|
D|---------------------------------------------------------------------------------------|
A|---------------------------------------------------------------------------------------|
E|0h7-7-7-7-7-7-0h3-3-3-3-3-3-0h5-5-5-5-5-5-0h2-2-2-2-2-2-0h3-3-3-3-3-3-3-0-0--0-0-0-0-0-|
B|---------------------------------------------------------------------------------------|

G|--------------------------------|
D|--------------------------------|(X2)
A|--------------------------------|
E|0h2-2-2-2-2-2-2--2--2-2-2-5-5-5-|
B|--------------------------------|

G|---------------------------------------------------------------------------------------|
D|---------------------------------------------------------------------------------------|
A|---------------------------------------------------------------------------------------|
E|0h7-7-7-7-7-7-0h3-3-3-3-3-3-0h5-5-5-5-5-5-0h2-2-2-2-2-2-0h3-3-3-3-3-3-3-0-0--0-0-0-0-0-|
B|---------------------------------------------------------------------------------------|

G|-------------------------------------|
D|-------------------------------------|
A|-------------------------------------|
E|0h2-2-2-2-2-2-2-2-2-2-2-3-3-3-3-3-7--|
B|-------------------------------------|


************************************

| x   Dead note
| g   Grace note
| (n) Ghost note
| h   Hammer-on
| p   Pull-off
| r   Release
| >   Accented note
| t   Tapping
| b   Bend
| br  Bend release
| pb  Pre-bend
| pbr Pre-bend release
| /   Slide up
| \   Slide down
| ~   Vibrato
| s   Slap
| P   Pop
| PM  Palm mute
| TR  Trill
| N   Tremolo

************************************
Suggest correction
Give kudos to tab author, rate the tab!
1 2 3 4 5
comments
print report bad tab
guest
You may want to rate the tab now too:
select rating
Wanna post a correction for this tab? Suggest correction