Oops, an error
Loading. Please wait.

Art Of Distortion Tab

1 view 1 this week
no commentswrite comment
1 2 3 4 5
3 more votes to show rating
add to favorites
launch autoscroll
font size
0
reset
how to read this tab
guitar tuner
Autoscroll
slow
fast
+/-
esc
set tempo
stop
Help us to improve Ultimate-Guitar.com Take our survey!
×
Author
Difficulty
intermediate
About this tab version
Its an original of our song. Was this info helpful? Yes No
[Intro] (From Intro - Chorus 2 Let the stings ring) 

e|------2-----------2-----------0-----------2-----|
B|----3---3-------3---3-------3---3-------2---2---|(X8)
G|--4-------4---4-------4---4-------4---3-------3-|
D|5-----------5-----------2-----------4-----------|
A|------------------------------------------------|
E|------------------------------------------------|

e|----2---------|
B|--3-----------|
G|4-------------|
D|--------------|
A|--------------|
E|--------------|


[Verse]

e|------------------------------------------------------------------------------------------------|
B|------------------------------------------------------------------------------------------------|(X2)
G|------0-----------0-----------0-----------0-----------0-----------0-----------4-----------3-----|
D|----0-----------0-----------0-----------0-----------0-----------0-----------2---2-------2---2---|
A|--9-----9-----5-----5-----7-----7-----4-----4-----5-----5-----2-----2-----4-------4---4---------|
E|7---------0h3---------0h5---------0h2---------0h3---------0-0---------0h2-----------2---------0h|

e|-------------------------------------------------------------------------------|
B|8/10-10--10-8\7-7--7--7/8-8--8-7\5-5--5-7/8-8--8----------7/8-8--8--8/10-10--10|(X2)
G|-------------------------------------------------6/7-7--7----------------------|
D|-------------------------------------------------------------------------------|
A|-------------------------------------------------------------------------------|
E|-------------------------------------------------------------------------------|


e|------------------------------------------------------------------------------------------------|
B|------------------------------------------------------------------------------------------------|(X4)
G|------0-----------0-----------0-----------0-----------0-----------0-----------4-----------3-----|
D|----0-----------0-----------0-----------0-----------0-----------0-----------2---2-------2---2---|
A|--9-----9-----5-----5-----7-----7-----4-----4-----5-----5-----2-----2-----4-------4---4---------|
E|7---------0h3---------0h5---------0h2---------0h3---------0-0---------0h2-----------2---------0h|

[Chorus]

e|-----------------------------------------------|
B|-----------------------------------------------|(X4)
G|--------6-----------4-----------4-----------0--|
D|------4---4-------4-----------2---2-------0---0|
A|----5-------5---5-----5-----4-------4---2------|
E|0h3-----------3---------0h2-----------0--------|

e|-----------------------------------------------|
B|-----------------------------------------------|(X4)
G|--------6-----------4-----------0-----------4--|
D|------4---4-------4---4-------0---0-------2---2|
A|----5-------5---5-------5---2-----------4------|
E|0h3-----------3-----------0---------0h2--------|

[Verse 2]

e|------------------------------------------------------------------------------------------------|
B|------------------------------------------------------------------------------------------------|(X2)
G|------0-----------0-----------0-----------0-----------0-----------0-----------4-----------3-----|
D|----0-----------0-----------0-----------0-----------0-----------0-----------2---2-------2---2---|
A|--9-----9-----5-----5-----7-----7-----4-----4-----5-----5-----2-----2-----4-------4---4---------|
E|7---------0h3---------0h5---------0h2---------0h3---------0-0---------0h2-----------2---------0h|

e|-------------------------------------------------------------------------------|
B|8/10-10--10-8\7-7--7--7/8-8--8-7\5-5--5-7/8-8--8----------7/8-8--8--8/10-10--10|(X2)
G|-------------------------------------------------6/7-7--7----------------------|
D|-------------------------------------------------------------------------------|
A|-------------------------------------------------------------------------------|
E|-------------------------------------------------------------------------------|

[Chorus 2]

e|-----------------------------------------------|
B|-----------------------------------------------|(X4)
G|--------6-----------4-----------0-----------4--|
D|------4---4-------4---4-------0---0-------2---2|
A|----5-------5---5-------5---2-----------4------|
E|0h3-----------3-----------0---------0h2--------|

e|-----------------------------------------------|
B|-----------------------------------------------|(X4)
G|--------6-----------4-----------4-----------0--|
D|------4---4-------4-----------2---2-------0---0|
A|----5-------5---5-----5-----4-------4---2------|
E|0h3-----------3---------0h2-----------0--------|

[Epic Long Outro Solo] (Add Distorion & in 4/4)

e|----------------------------------------------------|
B|----------------------------------------------------|(X2)
G|----------------------------------------------------|
D|------------------------------------------2---------|
A|9-------9\7--9--------9\7--9--------9\7---2----4----|
E|7-------7\5--7--------7\5--7--------7\5---0----2----|

e|-----------------------------------------------------------------------------------------------------------|
B|-----------------------------------------------------------------------------------------------------------|
G|-----------------------------------------------------------------------------------------------------------|
D|-----------------------------------------------------------------------------------------2-PM2-2--2--------|
A|9--PM9--9--9--9--10-10-9-9-9--9--PM9--9--9--9--12-12-9-9-9--9--PM9--9--9--9--10-10-9-9-9-2-PM2-2--2-4-4-4-4|
E|7--PM7--7--7--7---------------7--PM7--7--7--7---------------7--PM7--7--7--7--------------0-PM0-0--0h2-2-2-2|

e|8--8-8-8-8-8-8-8-8-8-8-8-10-10-9-8--8-8-8-8-8-8-8-8-8-8-8-10/12-12-12-12-8--8-8-8-8-8-8-8-8-8-8-8-10-10-9-|
B|----------------------------------------------------------------------------------------------------------|
G|----------------------------------------------------------------------------------------------------------|
D|----------------------------------------------------------------------------------------------------------|
A|----------------------------------------------------------------------------------------------------------|
E|----------------------------------------------------------------------------------------------------------|

e|7---6---7---9--10--10-12-12-12|
B|------------------------------|
G|------------------------------|
D|------------------------------|
A|------------------------------|
E|------------------------------|

e|---------------------------------------------------|
B|---------------------------------------------------|(X8)
G|---------------------------------------------------|
D|--------------------------2--2-2--2--2-------------|
A|9--9-9--9--9\5--5-5--5--5p2--2-2--2--2h4--4-4--4--7|
E|7--7-7--7--7\3--3-3--3--3p0--0-0--0--0h2--2-2--2--5|

e|-------------------------------------------------------|
B|-------------------------------------------------------|
G|-------------------------------------------------------|
D|-------------------------------------------------------|
A|9--9--9--------9--9--9--------9--9--9--------9----9----|
E|7--7--7--------7--7--7--------7--7--7--------7----7----|

[Epic Long Outro Solo 2]

e|--|-------------------------------------------------------------------------------------------------------|
B|--|-------------------------------------------------------------------------------------------------------|
G|--|-------------------------------------------------------------------------------------------------------|
D|--|--------(16th Notes)------------------(16th Notes)------------(16th Notes)------------(16th Notes)-----|
A|--|9--9-9-9-9-10-10-10-10-10-10---5--5-5-5-5-7-7-7-7-7-7---7--7-7-7-7-9-9-9-9-9-9---4--4-4-4-4-5-5-5-5-5-5|
E|0h|7----------------------------0h3----------------------0h5----------------------0h2---------------------|

e|-----------------------------------------------------------------------------------------------------|
B|-----------------------------------------------------------------------------------------------------|(X3)
G|-----------------------------------------------------------------------------------------------------|
D|---------(16th Notes)----2-2-----(16th Notes)-------------(16th Notes)------------(Triplets)---------|
A|--5--5-5-5-5-7-7-7-7-7-7-2-2--2-2-2-2-4-4-4-4-4-4---4--4-4-4-4-5-5-5-5-5-5---4--4-4-4--2-2-2--0-0-0--|
E|0h3----------------------0-0----------------------0h2----------------------0h2-----------------------|

e|-------------------------------------------------------------------------------------------------------|
B|-------------------------------------------------------------------------------------------------------|
G|-------------------------------------------------------------------------------------------------------|
D|--------(16th Notes)------------------(16th Notes)------------(16th Notes)------------(16th Notes)-----|
A|9--9-9-9-9-10-10-10-10-10-10---5--5-5-5-5-7-7-7-7-7-7---7--7-7-7-7-9-9-9-9-9-9---4--4-4-4-4-5-5-5-5-5-5|
E|7----------------------------0h3----------------------0h5----------------------0h2---------------------|

e|--------------------------------------------(16th Notes)---------------------------------------------------|
B|14-15-14-12--14-15-14-12--14-15-14-12--14-15-14-12--14-15-14-12--14-15-14-12--14-15-14-12--15/17-17---19--19
G|-----------------------------------------------------------------------------------------------------------|
D|-----------------------------------------------------------------------------------------------------------|
A|-----------------------------------------------------------------------------------------------------------|
E|-----------------------------------------------------------------------------------------------------------|

e|--|-------------------------------------------------------------------------------------------------------|
B|--|-------------------------------------------------------------------------------------------------------|
G|--|-------------------------------------------------------------------------------------------------------|
D|--|--------(16th Notes)------------------(16th Notes)------------(16th Notes)------------(16th Notes)-----|
A|--|9--9-9-9-9-10-10-10-10-10-10---5--5-5-5-5-7-7-7-7-7-7---7--7-7-7-7-9-9-9-9-9-9---4--4-4-4-4-5-5-5-5-5-5|
E|0h|7----------------------------0h3----------------------0h5----------------------0h2---------------------|

e|------------------------------------------------------------------------------------------------------|
B|------------------------------------------------------------------------------------------------------|
G|------------------------------------------------------------------------------------------------------|
D|---------(16th Notes)----2-2-----(16th Notes)-------------------------------2-2-2-2-2-----------------|
A|--5--5-5-5-5-7-7-7-7-7-7-2-2--2-2-2-2-4-4-4-4-4-4---4--P4-4-4-4-4-4-4-4-4-4-2-2-2-2-2----5------------|
E|0h3----------------------0-0----------------------0h2--M2-2-2-2-2-2-2-2-2-2-0-0-0-0-0----7------------|

************************************


| x   Dead note
| g   Grace note
| (n) Ghost note
| h   Hammer-on
| p   Pull-off
| r   Release
| >   Accented note
| t   Tapping
| b   Bend
| br  Bend release
| pb  Pre-bend
| pbr Pre-bend release
| /   Slide up
| \   Slide down
| ~   Vibrato
| s   Slap
| P   Pop
| PM  Palm mute
| TR  Trill
| N   Tremolo

************************************
Suggest correction
Give kudos to tab author, rate the tab!
1 2 3 4 5
comments
print report bad tab
guest
You may want to rate the tab now too:
select rating
Wanna post a correction for this tab? Suggest correction