Oops, an error
Loading. Please wait.

Memories Bass Tab

4 views 1 this week
no commentswrite comment
1 2 3 4 5
3 more votes to show rating
add to favorites
launch autoscroll
font size
0
reset
guitar tuner
Autoscroll
slow
fast
+/-
esc
set tempo
stop
Help us to improve Ultimate-Guitar.com Take our survey!
×
Author
Difficulty
intermediate
About this tab version
Its an original of our song. Was this info helpful? Yes No
[Intro]

G|-------------------------------------------------------------|
D|-------------------------------------------------------------|
A|5--5-5-5-5-5-5-7--7-7-7-7-7-7-3--3-3-3-3-3-3-3-3-3-3-3-3-3-3-|
E|-------------------------------------------------------------|
B|-------------------------------------------------------------|

G|-------------------------------------------------------------|
D|-------------------------------------------------------------|
A|5--5-5-5-5-5-5-7--7-7-7-7-7-7-3--3-3-3-3-3-0-0-0-0-0-0-2-2---|
E|-------------------------------------------------------------|
B|-------------------------------------------------------------|

G|-------------------------------------------------------------|
D|-------------------------------------------------------------|
A|5--5-5-5-5-5-5-7--7-7-7-7-7-7-3--3-3-3-3-3-3-3-3-3-3-3-3-3-3-|
E|-------------------------------------------------------------|
B|-------------------------------------------------------------|

G|-------------------------------------------------------------|
D|-------------------------------------------------------------|
A|5--5-5-5-5-5-5-7--7-7-7-7-7-7-3--3-3-3-3-3-0-0-0-0-0-0-2--3--|
E|-------------------------------------------------------------|
B|-------------------------------------------------------------|

G|---------------------------------|
D|---------------------------------|
A|------------3-5--7--5--3h5p3-0---|
E|--------3-5----------------------|
B|---------------------------------|

[Verse]

G|---------------------------------------------------------------|
D|---------------------------------------------------------------|
A|5--5-5-5-5-5-5-------------------------------------------------|
E|---------------5--5-5-5-5-5-5-3--3-3-3-3-3-3-3/5--5-5-5-5--0---|
B|---------------------------------------------------------------|

G|---------------------------------------------------------------|
D|---------------------------------------------------------5h7---|
A|5--5-5-5-5-5-5-----------------------------------3h5-7p5-------|
E|---------------5--5-5-5-5-5-5-3--3-3-3-3-3-3-3/5---------------|
B|---------------------------------------------------------------|

G|---------------------------------------------------------------|
D|---------------------------------------------------------------|
A|5--5-5-5-5-5-5-------------------------------------------------|
E|---------------5--5-5-5-5-5-5-3--3-3-3-3-3-3-3/5--5-5-5-5--0---|
B|---------------------------------------------------------------|

G|---------------------------------------------------------------|
D|---------------------------------------------------------------|
A|5--5-5-5-5-5-5-------------------------------------------------|
E|---------------5--5-5-5-5-5-5-3--3-3-3-3-3-3-3/5--5-5-5-5-5-5--|
B|---------------------------------------------------------------|


[Chorus]

G|-------------------------------------|
D|-------------------------------------|(X4)
A|--------------------5---5-------5--5-|
E|3--3-3-3-3/5--5-5-0------------------|
B|-------------------------------------|


[Intro 2] (Rhythm here changes slightly from intro 1)

G|-------------------------------------------------|
D|-------------------------------------------------|<--- Start Repeat from here
A|5--5-5-5-5-5--5/7--7-7-7\3--3--3--3--3-3-3--3--3-|
E|-------------------------------------------------|
B|-------------------------------------------------|


G|-----------------------------------------------|
D|-----------------------------------------------|(X2)
A|5--5-5-5-5-5--5/7--7-7-7\3--3--3--3-0--0--0--2-|
E|-----------------------------------------------|
B|-----------------------------------------------|


[Verse 2] (Rhythm here changes slightly from Verse 1)

G|-----------------------------------------------------|
D|-----------------------------------------------------|(X8)
A|5--5-5-5-5-5-----------------------------------------|
E|-------------5-5--5--5--5\3--3-3-3-3-3--3/5--5--5-0--|
B|-----------------------------------------------------|


[Chorus]

G|-------------------------------------|
D|-------------------------------------|<--- Start Repeat from here
A|--------------------5---5-------5--5-|
E|3--3-3-3-3/5--5-5-0------------------|
B|-------------------------------------|

G|---------------------------------|
D|-----------5-7p0-----------------|(X2)
A|-----3-5-7------5---5-------5--5-|
E|3--5-----------------------------|
B|---------------------------------|

[Breakdown]
                                   Start Repeat from here
G|------------------------------------------------------------------------------------------|
D|------------------------------------------------------------------------------------------|
A|---------------------------------------------------------------------------------3-3--2-3-|
E|3--3-3-3-3-3-3-3-3-3-3-3-3-3-3/5--5-5-5-5-5-5-5-5-5-5-5-5-5-5-1--1-1-1-1-1-1-1------------|
B|------------------------------------------------------------------------------------------|

G|---------------------------|
D|---------------------------|(X3)
A|-----------------3-3--2-3--|
E|1--1-1-1-1-1-1-1-----------|
B|---------------------------|

G|---------------------------------------------------------------------------------------|
D|---------------------------------------------------------------------------------------|
A|------------------------------------------------------------------------------3-3--2-3-|
E|3--3-3-3-3-3-3-3-3-3-3-3-3-3-3/5--5-5-5-5-5-5-5-5-5-5-5-5-5-5-1--1-1-1-1-1-1-1---------|
B|---------------------------------------------------------------------------------------|

G|---------------------------|
D|---------------------------|
A|-----------------3-3--2-3--|
E|1--1-1-1-1-1-1-1-----------|
B|---------------------------|

[Outro Solo]


G|-------------------------------------------------------------|
D|-------------------------------------------------------------|<--- Start Repeat from here
A|5--5-5-5-5-5-5-7--7-7-7-7-7-7-3--3-3-3-3-3-3-3-3-3-3-3-3-3-3-|
E|-------------------------------------------------------------|
B|-------------------------------------------------------------|

G|-------------------------------------------------------------|
D|-------------------------------------------------------------|(X7)
A|5--5-5-5-5-5-5-7--7-7-7-7-7-7-3--3-3-3-3-3-0-0-0-0-0-0-2-2---|
E|-------------------------------------------------------------|
B|-------------------------------------------------------------|

G|-------------------------------------------------------------|
D|-------------------------------------------------------------|
A|5--5-5-5-5-5-5-7--7-7-7-7-7-7-3--3-3-3-3-3-3-3-3-3-3-3-3-3-3-|
E|-------------------------------------------------------------|
B|-------------------------------------------------------------|

G|-------------------------------------------------------------|
D|-------------------------------------------------------------|
A|5--5-5-5-5-5-5-7--7-7-7-7-7-7-3--3-3-3-3-3-3-0--0--0---2-----|
E|-------------------------------------------------------------|
B|-------------------------------------------------------------|

G|----------------------------------------------|
D|----------------------------------------------|(X8)
A|5--5--5--3-3--5-5--5--------------------------|
E|---------------------0h5--5-5--5-3-3--5-5-5-0-|
B|----------------------------------------------|

G|-------|
D|-------|
A|5-5-5--|
E|-------|
B|-------|



************************************

| x   Dead note
| g   Grace note
| (n) Ghost note
| h   Hammer-on
| p   Pull-off
| r   Release
| >   Accented note
| t   Tapping
| b   Bend
| br  Bend release
| pb  Pre-bend
| pbr Pre-bend release
| /   Slide up
| \   Slide down
| ~   Vibrato
| s   Slap
| P   Pop
| PM  Palm mute
| TR  Trill
| N   Tremolo

************************************
Suggest correction
Give kudos to tab author, rate the tab!
1 2 3 4 5
comments
print report bad tab
guest
You may want to rate the tab now too:
select rating
Wanna post a correction for this tab? Suggest correction