Oops, an error
Loading. Please wait.

Memories Tab

7 views 1 this week
no commentswrite comment
1 2 3 4 5
3 more votes to show rating
add to favorites
launch autoscroll
font size
0
reset
how to read this tab
guitar tuner
Autoscroll
slow
fast
+/-
esc
set tempo
stop
Help us to improve Ultimate-Guitar.com Take our survey!
×
Author
Difficulty
intermediate
About this tab version
Its an original of our song. Was this info helpful? Yes No
[Intro]

e|----------------------(16th notes)------------------------------------|
B|----------------------------------------------------------------------|
G|----------------------------------------------------------------------|
D|7--7-7-7-7-7-7-9--9-9-9-9-9-9-5--5-5-5-5-5-5-7-7-7-7-9-9-9-9-5-5-5-5-7|
A|5--5-5-5-5-5-5-7--7-7-7-7-7-7-3--3-3-3-3-3-3--------------------------|
E|----------------------------------------------------------------------|

e|----------------------(16th notes)------------------------------------|
B|----------------------------------------------------------------------|
G|----------------------------------------------------------------------|
D|7--7-7-7-7-7-7-9--9-9-9-9-9-9-5--5-5-5-5-5-5-7-7-7-7-9-9-9-9-5-5-5-5-3|
A|5--5-5-5-5-5-5-7--7-7-7-7-7-7-3--3-3-3-3-3-3--------------------------|
E|----------------------------------------------------------------------|

e|----------------------(16th notes)------------------------------------|
B|----------------------------------------------------------------------|
G|----------------------------------------------------------------------|
D|7--7-7-7-7-7-7-9--9-9-9-9-9-9-5--5-5-5-5-5-5-7-7-7-7-9-9-9-9-5-5-5-5-7|
A|5--5-5-5-5-5-5-7--7-7-7-7-7-7-3--3-3-3-3-3-3--------------------------|
E|----------------------------------------------------------------------|

e|----------------------(16th notes)-----------------------------------------|
B|---------------------------------------------------------------------------|
G|---------------------------------------------------------------------------|
D|7--7-7-7-7-7-7-9--9-9-9-9-9-9-5--5-5-5-5-5-5-7-7-7-7-9-9-9-9-5-5-5-5-3-7---|
A|5--5-5-5-5-5-5-7--7-7-7-7-7-7-3--3-3-3-3-3-3---------------------------5---|
E|---------------------------------------------------------------------------|

[Verse]

e|--------------------------------------------------------------|
B|--------------------------------------------------------------|(X3)
G|--------------------------------------------------------------|
D|7--7-7-7-7-7-7------------------------------------------------|
A|5--5-5-5-5-5-5-7--7-7-7-7-7-7-5--5-5-5-5-5-5-5/7--7-7-7-7-7-7-|
E|---------------5--5-5-5-5-5-5-3--3-3-3-3-3-3-3/5--5-5-5-5-5-5-|

e|------------------------------------------------------------|
B|------------------------------------------------------------|
G|------------------------------------------------------------|
D|7--7-7-7-7-7-7----------------------------------------------|
A|5--5-5-5-5-5-5-7--7-7-7-7-7-7-5--5-5-5-5-5-5-5/7--7-7-7-7-7-|
E|---------------5--5-5-5-5-5-5-3--3-3-3-3-3-3-3/5--5-5-5-5-5-|


[Chorus]

e|----------------------------------|
B|----------------------------------|(X4)
G|----------------2-7---7-------7--7|
D|5--5-5-5/7--7-7-2-5---5-------5--5|
A|3--3-3-3/5--5-5-0-----------------|
E|----------------------------------|

[Intro 2]

e|--------------------------------------------------------------------------------------------------|
B|--------------------------------------------------------------------------------------------------|
G|----------------------------------------(16th notes)----------------------------------------------|
D|7--7-7-7-7-7--7/9--9-9-9\5--5--5--5--7-7-7-7-9-9-9-9-5-5-5-5-7-7--7-7-7-7-7--7/9--9-9-9\5--5--5--5|
A|5--5-5-5-5-5--5/7--7-7-7\3--3--3--3----------------------------5--5-5-5-5-5--5/7--7-7-7\3--3--3--3|
E|--------------------------------------------------------------------------------------------------|

e|------------------------|
B|------------------------|(X2)
G|----(16th notes)--------|
D|7-7-7-7-9-9-9-9-5-5-5-5-|
A|------------------------|
E|------------------------|

[Verse 2]

e|-------------------------------------------------|
B|-------------------------------------------------|(X7)
G|-------------------------------------------------|
D|7--7-7-7-7-7------------------------------------2|
A|5--5-5-5-5-5-7-7--7--7--7\5--5-5--5--5/7--7--7--2|
E|-------------5-5--5--5--5\3--3-3--3--3/5--5--5--0|

e|-------------------------------------------------|
B|-------------------------------------------------|
G|-------------------------------------------------|
D|7--7-7-7-7-7-------------------------------------|
A|5--5-5-5-5-5-7-7--7--7--7\5--5-5--5--5/7--7--7--7|
E|-------------5-5--5--5--5\3--3-3--3--3/5--5--5--5|

[Chorus 2]

e|----------------------------------|
B|----------------------------------|(X4)
G|----------------2-7---7-------7--7|
D|5--5-5-5/7--7-7-2-5---5-------5--5|
A|3--3-3-3/5--5-5-0-----------------|
E|----------------------------------|

[Breakdown]

e|------------------------------(16th notes)-----------Start Repeat from here--------------|
B|-----------------------------------------------------------------------------------------|
G|---------------------------------------------------------------------------------5-5--4-5|
D|---------------------------------------------------------------------------------3-3--2-3|
A|5--5-5-5-5-5-5-5-5-5-5-5-5-5-5/7--7-7-7-7-7-7-7-7-7-7-7-7-7-7-3--3-3-3-3-3-3-3-----------|
E|3--3-3-3-3-3-3-3-3-3-3-3-3-3-3/5--5-5-5-5-5-5-5-5-5-5-5-5-5-5-1--1-1-1-1-1-1-1-----------|

e|---------------------------|
B|---------------------------|(X4)
G|-------------------5-5--4-5|
D|-------------------3-3--2-3|
A|3--3-3-3-3-3-3-3-----------|
E|1--1-1-1-1-1-1-1-----------|

[Outro Solo]

e|----------------------(16th notes)------------------------------------|
B|----------------------------------------------------------------------|<--- Start Repeat from here
G|----------------------------------------------------------------------|
D|7--7-7-7-7-7-7-9--9-9-9-9-9-9-5--5-5-5-5-5-5-7-7-7-7-9-9-9-9-5-5-5-5-7|
A|5--5-5-5-5-5-5-7--7-7-7-7-7-7-3--3-3-3-3-3-3--------------------------|
E|----------------------------------------------------------------------|

e|----------------------(16th notes)------------------------------------|
B|----------------------------------------------------------------------|(X8)
G|----------------------------------------------------------------------|
D|7--7-7-7-7-7-7-9--9-9-9-9-9-9-5--5-5-5-5-5-5-7-7-7-7-9-9-9-9-5-5-5-5-3|
A|5--5-5-5-5-5-5-7--7-7-7-7-7-7-3--3-3-3-3-3-3--------------------------|
E|----------------------------------------------------------------------|

e|----------------------------------------------|
B|----------------------------------------------|(X8)
G|----------------------------------------------|
D|7--7--7--5-5--7-7--7-2h----------------------2|
A|5--5--5--3-3--5-5--5-2h7--7-7--7-5-5--7-7--7-2|
E|---------------------0h5--5-5--5-3-3--5-5--5-0|

e|-------|
B|-------|
G|-------|
D|7-7-7--|
A|5-5-5--|
E|-------|


************************************

| x   Dead note
| g   Grace note
| (n) Ghost note
| h   Hammer-on
| p   Pull-off
| r   Release
| >   Accented note
| t   Tapping
| b   Bend
| br  Bend release
| pb  Pre-bend
| pbr Pre-bend release
| /   Slide up
| \   Slide down
| ~   Vibrato
| s   Slap
| P   Pop
| PM  Palm mute
| TR  Trill
| N   Tremolo

************************************
Suggest correction
Give kudos to tab author, rate the tab!
1 2 3 4 5
comments
print report bad tab
guest
You may want to rate the tab now too:
select rating
Wanna post a correction for this tab? Suggest correction