Oops, an error
Loading. Please wait.

Miss Understood Bass Tab

7 views 1 this week
no commentswrite comment
1 2 3 4 5
3 more votes to show rating
add to favorites
launch autoscroll
font size
0
reset
guitar tuner
Autoscroll
slow
fast
+/-
esc
set tempo
stop
Help us to improve Ultimate-Guitar.com Take our survey!
×
Author
Difficulty
intermediate
About this tab version
Its an original of our song. Was this info helpful? Yes No
[Verse]

G|---------------------------------------------------------------------------------------------------|
D|---------------------------------------------------------------------------------------------------|
A|---------------------------------------------------------------------------------------------------|
E|0--0-0--0h7--7-7--7--7p5--5-5--5--5h7--7-7--7--7p0--0-0--0--0h7--7-7--7--7p5--5-5--5--5h7--7-7--7--|
B|---------------------------------------------------------------------------------------------------|


G|-------------------------------------------------------------------------------------------------------|
D|-------------------------------------------------------------------------------------------------------|
A|---------------------------------------------------------------------------------------------------9---|
E|7p0--0-0--0--0h7--7-7--7--7p5--5-5--5--5h7--7-7--7--7p0--0-0--0--0h7--7-7--7--7p5--5-5--5--5h7--7-7--7-|
B|-------------------------------------------------------------------------------------------------------|

[Chorus]

G|----------------------------------------------------|
D|----------------------------------------------------|(X4)
A|----------------------------------------------------|
E|7p0--0--0--9-9-9-9--9--9-9p5--5--5--5--5h7-7--7--7--|
B|----------------------------------------------------|


G|-----------------------------------------------------|
D|-----------------------------------------------------|<---Start Repeat here
A|---------------------------------7--------------9----|
E|7p0--0--0--9-9-9-9--9--9-9p5--5-----5--5h7-7--7---7--|
B|-----------------------------------------------------|


G|-----------------------------------------------------|
D|-----------------------------------------------------|(X2)
A|---------------------------------7--------------9--11|
E|7p0--0--0--9-9-9-9--9--9-9p5--5-----5--5h7-7--7------|
B|-----------------------------------------------------|

[Verse 2]
                                                                [Repeat with this section]
G|-----------------------------------------------|----------------------------------------------------|
D|-----------------------------------------------|----------------------------------------------------|(X7)
A|-----------------------------------------------|----------------------------------------------------|
E|0--0-0--0h7--7-7--7--7p5--5-5--5--5h7--7-7--7--|7p0--0-0--0--0h7--7-7--7--7p5--5-5--5--5h7--7-7--7--|
B|-----------------------------------------------|----------------------------------------------------|


[Chorus 2]

G|----------------------------------------------------|
D|----------------------------------------------------|(X4)
A|----------------------------------------------------|
E|7p0--0--0--9-9-9-9--9--9-9p5--5--5--5--5h7-7--7--7--|
B|----------------------------------------------------|


G|-----------------------------------------------------|
D|-----------------------------------------------------|<---Start Repeat here
A|---------------------------------7--------------9----|
E|7p0--0--0--9-9-9-9--9--9-9p5--5-----5--5h7-7--7---7--|
B|-----------------------------------------------------|


G|-----------------------------------------------------|
D|-----------------------------------------------------|(X2)
A|---------------------------------7--------------9--11|
E|7p0--0--0--9-9-9-9--9--9-9p5--5-----5--5h7-7--7------|
B|-----------------------------------------------------|

[Breakdown]
                                               [Repeat with this section]
G|------|----------------------------------------------------------------------------------------------------|
D|------|------------------------------------------------------------------------------------------------|(X4)
A|------|----------------------------------------------------------------------------------------------------|
E|0-0-0-|-0--0--0--0-0--0--0--0h7--7--7--7--7-7--7--7--7p3--3--3--3--3-3--3--3-3-3h5--5--5--5--2-2--2--2--2p0|
B|------|----------------------------------------------------------------------------------------------------|


G|-------------------------------------------------------------------------------------------------------|
D|-------------------------------------------------------------------------------------------------------|
A|-------------------------------------------------------------------------------------------------------|
E|0--0--0--0-0--0--0--0h7--7-7--7--7--7p5--5-5--5--5--5/9--9-9--9--9-9--9-9--9--9-9--9-9--9--9-9--9-9--9-|
B|-------------------------------------------------------------------------------------------------------|

                                                                  [Repeat with this section]
G|-----------------------------------------------------|-----------------------------------------------|
D|-----------------------------------------------------|-----------------------------------------------|(X3)
A|-----------------------------------------------------|-------11----------7-----------9-----------7---|
E|9p0--0--0--0-0--0--0--0h7--7-7--7--7--7p5--5-5--5--5-|5h9--9----9-9\5--5---5--5h7--7---7--7p5--5---5-|
B|-----------------------------------------------------|-----------------------------------------------|

G|------------------------------------------------|
D|------------------------------------------------|
A|-------11----------7-----------9-----------7----|
E|5h9--9----9-9\5--5---5--5h7--7---7--7p5--5---5-5|
B|------------------------------------------------|

[Outro solo]

G|---------------------------------------------------------------------------------------------------|
D|---------------------------------------------------------------------------------------------------|
A|---------------------------------------------------------------------------------------------------|
E|0--0-0--0h7--7-7--7--7p5--5-5--5--5h7--7-7--7--7p0--0-0--0--0h7--7-7--7--7p5--5-5--5--5h7--7-7--7--|
B|---------------------------------------------------------------------------------------------------|


G|-------------------------------------------------------------------------------------------------------|
D|-------------------------------------------------------------------------------------------------------|
A|-------------------------------------------------------------------------------------------------------|
E|7p0--0-0--0--0h7--7-7--7--7p5--5-5--5--5h7--7-7--7--7p0--0-0--0--0h7--7-7--7--7p5--5-5--5--5h7--7-7--7-|
B|-------------------------------------------------------------------------------------------------------|


G|-----------------------------------------------------|
D|-----------------------------------------------------|<---Start Repeat here
A|---------------------------------7--------------9----|
E|7p0--0--0--9-9-9-9--9--9-9p5--5-----5--5h7-7--7---7--|
B|-----------------------------------------------------|


G|-----------------------------------------------------|
D|-----------------------------------------------------|(X2)
A|---------------------------------7--------------9--11|
E|7p0--0--0--9-9-9-9--9--9-9p5--5-----5--5h7-7--7------|
B|-----------------------------------------------------|

G|--------------------------------------------|
D|--------------------------------------------|(X4)
A|---------------11----------7----------9-----|
E|0--0--0--9-9-9----9--5-5-5---5--7-7-7---7---|
B|--------------------------------------------|

G|------|
D|------|
A|------|
E|0-0-0-|
B|------|


************************************

| x   Dead note
| g   Grace note
| (n) Ghost note
| h   Hammer-on
| p   Pull-off
| r   Release
| >   Accented note
| t   Tapping
| b   Bend
| br  Bend release
| pb  Pre-bend
| pbr Pre-bend release
| /   Slide up
| \   Slide down
| ~   Vibrato
| s   Slap
| P   Pop
| PM  Palm mute
| TR  Trill
| N   Tremolo

************************************
Suggest correction
Give kudos to tab author, rate the tab!
1 2 3 4 5
comments
print report bad tab
guest
You may want to rate the tab now too:
select rating
Wanna post a correction for this tab? Suggest correction