Oops, an error
Loading. Please wait.

Miss Understood Tab

13 views 1 this week
no commentswrite comment
1 2 3 4 5
2 more votes to show rating
add to favorites
launch autoscroll
font size
0
reset
how to read this tab
guitar tuner
Autoscroll
slow
fast
+/-
esc
set tempo
stop
Help us to improve Ultimate-Guitar.com Take our survey!
×
Author
Difficulty
intermediate
About this tab version
Its an original of our song. Was this info helpful? Yes No
[Intro]

e|--------------------------------------------------------|
B|--------------------------------------------------------|(X2)
G|--------------------------------------------------------|
D|-(16th notes)(16th notes)-(16th notes)--(16th notes)----|
A|--9-9-7-7-7---9-9-7-7-7---9-9-11-11-11---12-12-11-11-11-|
E|0-----------7-----------5--------------7----------------|

[Verse]

e|--------------------------------------------------------|
B|--------------------------------------------------------|(X4)
G|--------------------------------------------------------|
D|-(16th notes)(16th notes)-(16th notes)--(16th notes)----|
A|--9-9-7-7-7---9-9-7-7-7---9-9-11-11-11---12-12-11-11-11-|
E|0-----------7-----------5--------------7----------------|


[Chorus]

e|-------------------------------------------------------|
B|-------------------------------------------------------|(X8)
G|-------------------------------------------------------|
D|2--2--2------------------------------------------------|
A|2--2--2-11-11-11-11--11--11-11p7---7--7--7--7h9-9--9--9|
E|0--0--0-9--9--9--9----9---9--9p5---5--5--5--5h7-7--7--7|


[Verse 2]

e|--------------------------------------------------------|
B|--------------------------------------------------------|(X8)
G|--------------------------------------------------------|
D|-(16th notes)(16th notes)-(16th notes)--(16th notes)----|
A|--9-9-7-7-7---9-9-7-7-7---9-9-11-11-11---12-12-11-11-11-|
E|0-----------7-----------5--------------7----------------|

[Chorus 2]

e|-------------------------------------------------------|
B|-------------------------------------------------------|(X8)
G|-------------------------------------------------------|
D|2--2--2------------------------------------------------|
A|2--2--2-11-11-11-11--11--11-11p7---7--7--7--7h9-9--9--9|
E|0--0--0-9--9--9--9----9---9--9p5---5--5--5--5h7-7--7--7|

[Breakdown]

e|------|----------------------------------------------------------------------------------------------------|
B|------|------------------------------------------------------------------------------------------------|(X4)
G|------|----------------------------------------------------------------------------------------------------|
D|2-2-2-|-2--2--2--2-2--2--2--2-----------------------------------------------------------------------------2|
A|2-2-2-|-2--2--2--2-2--2--2--2h9--9--9--9--9-9--9--9--9p5--5--5--5--5-5--5--5-5-5h7--7--7--7--4-4--4--4--4p2|
E|0-0-0-|-0--0--0--0-0--0--0--0h7--7--7--7--7-7--7--7--7p3--3--3--3--3-3--3--3-3-3h5--5--5--5--2-2--2--2--2p0|

e|-------------------------------------------------------------------------------------------------------|
B|-------------------------------------------------------------------------------------------------------|
G|-------------------------------------------------------------------------------------------------------|
D|2--2--2--2-2--2--2--2----------------------------------------------------------------------------------|
A|2--2--2--2-2--2--2--2h9--9-9--9--9--9p7--7-7--7--7--7/11-11---11-11---11---11-11--11-11-11-11---11---11|
E|0--0--0--0-0--0--0--0h7--7-7--7--7--7p5--5-5--5--5--5/9--9-9--9--9-9--9-9--9--9-9--9-9--9--9-9--9-9--9-|

e|----------------------------------------------|------------[Repeat with this section]-------------------|
B|----------------------------------------------|--------------------------------------------------------|(X3)
G|----------------------------------------------|---------------------------------------------------------|
D|2--2--2--2-2--2--2--2-------------------------|---------------------------------------------------------|
A|2--2--2--2-2--2--2--2h9--9-9--9--9p7--7-7--7--|7/11--11-11--11-11p7--7-7--7--7h9--9-9--9--9p7--7-7--7--7|
E|0--0--0--0-0--0--0--0h7--7-7--7--7p5--5-5--5--|5/-9---9--9---9--9p5--5-5--5--5h7--7-7--7--7p5--5-5--5--5|


e|----------------------------------------------------------|
B|----------------------------------------------------------|
G|----------------------------------------------------------|
D|----------------------------------------------------------|
A|7/11--11-11--11-11p7--7-7--7--7h9--9-9--9--9p7--7-7--7---7|
E|5/-9---9--9---9--9p5--5-5--5--5h7--7-7--7--7p5--5-5--5---5|

[Outro Solo]

e|--------------------------------------------------------|
B|--------------------------------------------------------|(X4)
G|--------------------------------------------------------|
D|-(16th notes)(16th notes)-(16th notes)--(16th notes)----|
A|--9-9-7-7-7---9-9-7-7-7---9-9-11-11-11---12-12-11-11-11-|
E|0-----------7-----------5--------------7----------------|

e|-------------------------------------------------------|
B|-------------------------------------------------------|(X4)
G|-------------------------------------------------------|
D|2--2--2------------------------------------------------|
A|2--2--2-11-11-11-11--11--11-11p7---7--7--7--7h9-9--9--9|
E|0--0--0-9--9--9--9----9---9--9p5---5--5--5--5h7-7--7--7|

e|-------------------------------------------------------|
B|-------------------------------------------------------|(X3)
G|-------------------------------------------------------|
D|2--2--2-11-11-11-11---11-11-11p7---7--7--7--7h9-9--9--9|
A|2--2--2-9--9--9--9----9---9--9p5---5--5--5--5h7-7--7--7|
E|0--0--0-9--9--9--9----9---9--9p5---5--5--5--5h7-7--7--7|

e|-----------------------------------------------------------------|
B|-----------------------------------------------------------------|
G|-----------------------------------------------------------------|
D|2--2--2-11-11-11-11---11-11-11p7---7--7--7--7h9-9--9--9--9--2----|
A|2--2--2-9--9--9--9----9---9--9p5---5--5--5--5h7-7--7--7--7--2----|
E|0--0--0-9--9--9--9----9---9--9p5---5--5--5--5h7-7--7--7--7--0----|


************************************

| x   Dead note
| g   Grace note
| (n) Ghost note
| h   Hammer-on
| p   Pull-off
| r   Release
| >   Accented note
| t   Tapping
| b   Bend
| br  Bend release
| pb  Pre-bend
| pbr Pre-bend release
| /   Slide up
| \   Slide down
| ~   Vibrato
| s   Slap
| P   Pop
| PM  Palm mute
| TR  Trill
| N   Tremolo

************************************
Suggest correction
Give kudos to tab author, rate the tab!
1 2 3 4 5
comments
print report bad tab
guest
You may want to rate the tab now too:
select rating
Wanna post a correction for this tab? Suggest correction