Oops, an error
Loading. Please wait.

Music To My Eyes Tab

22 views 1 this week
no commentswrite comment
1 2 3 4 5
3 more votes to show rating
add to favorites
launch autoscroll
font size
0
reset
how to read this tab
guitar tuner
Autoscroll
slow
fast
+/-
esc
set tempo
stop
Help us to improve Ultimate-Guitar.com Take our survey!
×
Author
Difficulty
advanced
About this tab version
Its an original of our song. Was this info helpful? Yes No
[Intro] 

(on the parts that look like sweeps, Hold out the notes through the entire song,they're just chords)
(that are played one by one, or arpegiated)

e|--------3---------------1-----------------1-------------3-------|
B|------4---4-----------1---1-------------1---1-------------3-----|(x2)
G|----3-------3-------1-------1---------1---------------4-----4---|
D|--5---------------3-----------------1---------------3-----------|
A|3-------------0h1-----------------3---------------5-----------0h|
E|------------------------------0h1-------------0h3---------------|


e|--------3---------------1-------1--1-1--1--1--3--3-x-3--3-x--1--1-1--1--1--------x------|
B|------4---4-----------1---1-----1--1-1--1--1--3--3-x-3--3-x--1--1-1--1--1--3---3-x-3--3-|
G|----3-------3-------1-------1---1--1-1--1--1--3--3-x-3--3-x--1--1-1--1--1--4---4-x-4--4-|
D|--5---------------3-------------1--1-1--1--1--3--3-x-3--3-x--1--1-1--1--1--3---3-x-3--3-|
A|3-------------0h1---------------3--3-3--3--3--5--5-x-5--5-x--3--3-3--3--3--------x------|
E|------------------------------0h1--1-1--1--1--3--3-x-3--3-x--1--1-1--1--1--3---3-x-3--3-|


[Verse]

e|x-x-----------------------------x-x--1--1-x-1--1--x-3--3-x--3--3-|
B|x-x--4--4-4--4-6--3--3--4-4--3--x-x--3--3-x-1--1--x-4--4-x--3--3-|(x4)
G|x-x--3--3-3--3-3--3--3--3-3--3--x-x--1--1-x-1--1--x-3--3-x--3--3-|
D|x-x--5--5-5--5-5--3--3--3-3--3--x-x--1--1-x-1--1--x-3--3-x--3--3-|
A|x-x--3--3-3--3-3--5--5--5-5--5--x-x--3--3-x-3--3--x-5--5-x--5--5-|
E|x-x---------------3--3--3-3--3--x-x--1--1-x-1--1--x-3--3-x--3--3-|


[Pre-Chorus]

e|1--1-1-x-1-x-3--3--x-3--3--x-x--1--1-1-x-1-x--------x-------|
B|1--1-1-x-1-x-3--3--x-3--3--x-x--1--1-1-x-1-x--3--3--x--4----|(x2)
G|1--1-1-x-1-x-3--3--x-3--3--x-x--1--1-1-x-1-x--3--3--x--4----|
D|1--1-1-x-1-x-3--3--x-3--3--x-x--1--1-1-x-1-x--3--3--x--4----|
A|3--3-3-x-3-x-5--5--x-5--5--x-x--3--3-3-x-3-x--------x-------|
E|1--1-1-x-1-x-3--3--x-3--3--x-x--1--1-1-x-1-x--3--3--x--4----|

e|-------x---x-------x-------x-x---------x---x--------x-------|
B|1--1-1-x-1-x-3--3--x-3--3--x-x--1--1-1-x-1-x--3--3--x--4----|
G|1--1-1-x-1-x-3--3--x-3--3--x-x--1--1-1-x-1-x--3--3--x--4----|
D|1--1-1-x-1-x-3--3--x-3--3--x-x--1--1-1-x-1-x--3--3--x--4----|
A|-------x---x-------x-------x-x---------x---x--------x-------|
E|1--1-1-x-1-x-3--3--x-3--3--x-x--1--1-1-x-1-x--3--3--x--4----|

e|-------x---x-------x-------x-x---------x---x-------------------|
B|1--1-1-x-1-x-3--3--x-3--3--x-x--1--1-1-x-1-x--3-3-3-3-3-3-3-3--|
G|1--1-1-x-1-x-3--3--x-3--3--x-x--1--1-1-x-1-x--4-4-4-4-4-4-4-4--|
D|1--1-1-x-1-x-3--3--x-3--3--x-x--1--1-1-x-1-x--3-3-3-3-3-3-3-3--|
A|-------x---x-------x-------x-x---------x---x-------------------|
E|1--1-1-x-1-x-3--3--x-3--3--x-x--1--1-1-x-1-x--3-3-3-3-3-3-3-3--|


[Chorus]

e|------------------1-----------------1-----------------3----|
B|------4---6---3---1-3h4p1---------1-----------------3---3--|<--- Start Repeat Here
G|----3-------------1-------------1-----1-----------3--------|
D|--5---------------3-----------1-----------------3----------|
A|3-------3---3-----1---------3-----------------5------------|
E|--------------------------1-------------1/3-3-------------6|

e|------------------1-----------------1-----------------3----|
B|------4---6---3---1-3h4p1---------1-----------------3---3--|(x2)
G|----3-------------1-------------1-----1-----------4--------|
D|--5---------------3-----------1-----------------3----------|
A|3-------3---3-----1---------3-----------------5------------|
E|--------------------------1-------------1/3-3-------------6|


[After Chorus]

e|--------3------------------5---------------1-----------------3------|
B|------4---4--------------6---6-----------1---1-------------3---3----|(x3)
G|----3-------3----------5-------5-------1-------1---------3-------3--|
D|--5------------------7---------------3-----------------5------------|
A|3--------------3h5-5------------------------------------------------|
E|---------------------------------0h1-------------1h3-3-------------6|

e|--------3------------------5---------------1--------------------------------1----------------------|
B|------4---4--------------6---6-----------1---1-----------1-------3--------1---1-----------1-------3|
G|----3-------3----------5-------5-------1-------1-------1-------3--------1-------1-------1-------3--|
D|--5------------------7---------------3---------------3-------5--------3---------------3-------5----|
A|3--------------3h5-5-------------------------------------------------------------------------------|
E|---------------------------------0h1-------------1-1-------3-------1--------------1-1-------3------|

e|--------1-----------------3---|
B|------1---1-------------3---3-|
G|----1-------1---------3-------|
D|--3-----------------5---------|
A|------------------------------|
E|1-------------1h3-3-----------|


[Interlude]

e|-----------------------------------------------------------|
B|6-8-9--8--6--9--9/11--8h9p8--6--8-9--8--6--9--9/11--8h9p8--|(x3)
G|-----------------------------------------------------------|
D|-----------------------------------------------------------|
A|-----------------------------------------------------------|
E|-----------------------------------------------------------|


e|----------------------------------------------------|
B|6--8-8h9-8-9-9h11-9-11-11h13-11-13-13h15-13--15--13-|
G|----------------------------------------------------|
D|----------------------------------------------------|
A|----------------------------------------------------|
E|----------------------------------------------------|


[Verse 2]

e---------------------------x-x--1--1-x-1--1--x-3--3-x--3--3-|
B4--4-4--4-6--3--3--4-4--3--x-x--3--3-x-1--1--x-4--4-x--3--3-|
G3--3-3--3-3--3--3--3-3--3--x-x--1--1-x-1--1--x-3--3-x--3--3-|
D5--5-5--5-5--3--3--3-3--3--x-x--1--1-x-1--1--x-3--3-x--3--3-|
A3--3-3--3-3--5--5--5-5--5--x-x--3--3-x-3--3--x-5--5-x--5--5-|
E-------------3--3--3-3--3--x-x--1--1-x-1--1--x-3--3-x--3--3-|

e|x-x--|---------------------------x-x--1--1-x-1--1--x-3--3-x--3--3-|
B|x-x--|4--4-4--4-6--3--3--4-4--3--x-x--3--3-x-1--1--x-4--4-x--3--3-|(x3)
G|x-x--|3--3-3--3-3--3--3--3-3--3--x-x--1--1-x-1--1--x-3--3-x--3--3-|
D|x-x--|5--5-5--5-5--3--3--3-3--3--x-x--1--1-x-1--1--x-3--3-x--3--3-|
A|x-x--|3--3-3--3-3--5--5--5-5--5--x-x--3--3-x-3--3--x-5--5-x--5--5-|
E|x-x--|-------------3--3--3-3--3--x-x--1--1-x-1--1--x-3--3-x--3--3-|


[Pre-Chorus 2]

e|1--1-1-x-1-x-3--3--x-3--3--x-x--1--1-1-x-1-x--------x-------|
B|1--1-1-x-1-x-3--3--x-3--3--x-x--1--1-1-x-1-x--3--3--x--4----|(x2)
G|1--1-1-x-1-x-3--3--x-3--3--x-x--1--1-1-x-1-x--3--3--x--4----|
D|1--1-1-x-1-x-3--3--x-3--3--x-x--1--1-1-x-1-x--3--3--x--4----|
A|3--3-3-x-3-x-5--5--x-5--5--x-x--3--3-3-x-3-x--------x-------|
E|1--1-1-x-1-x-3--3--x-3--3--x-x--1--1-1-x-1-x--3--3--x--4----|

e|-------x---x-------x-------x-x---------x---x--------x-------|
B|1--1-1-x-1-x-3--3--x-3--3--x-x--1--1-1-x-1-x--3--3--x--4----|
G|1--1-1-x-1-x-3--3--x-3--3--x-x--1--1-1-x-1-x--3--3--x--4----|
D|1--1-1-x-1-x-3--3--x-3--3--x-x--1--1-1-x-1-x--3--3--x--4----|
A|-------x---x-------x-------x-x---------x---x--------x-------|
E|1--1-1-x-1-x-3--3--x-3--3--x-x--1--1-1-x-1-x--3--3--x--4----|

e|-------x---x-------x-------x-x---------x---x-------------------|
B|1--1-1-x-1-x-3--3--x-3--3--x-x--1--1-1-x-1-x--3-3-3-3-3-3-3-3--|
G|1--1-1-x-1-x-3--3--x-3--3--x-x--1--1-1-x-1-x--4-4-4-4-4-4-4-4--|
D|1--1-1-x-1-x-3--3--x-3--3--x-x--1--1-1-x-1-x--3-3-3-3-3-3-3-3--|
A|-------x---x-------x-------x-x---------x---x-------------------|
E|1--1-1-x-1-x-3--3--x-3--3--x-x--1--1-1-x-1-x--3-3-3-3-3-3-3-3--|


[Chorus 2]

e|------------------1-----------------1-----------------3----|
B|------4---6---3---1-3h4p1---------1-----------------3---3--|
G|----3-------------1-------------1-----1-----------3--------|
D|--5---------------3-----------1-----------------3----------|
A|3-------3---3-----1---------3-----------------5------------|
E|--------------------------1-------------1/3-3-------------6|

e|------------------1-----------------1-----------------3----|
B|------4---6---3---1-3h4p1---------1-----------------3---3--|
G|----3-------------1-------------1-----1-----------4--------|
D|--5---------------3-----------1-----------------3----------|
A|3-------3---3-----1---------3-----------------5------------|
E|--------------------------1-------------1/3-3-------------6|

e|------------------1-----------------1-----------------3----|
B|------4---6---3---1-3h4p1---------1-----------------3---3--|
G|----3-------------1-------------1-----1-----------3--------|
D|--5---------------3-----------1-----------------3----------|
A|3-------3---3-----1---------3-----------------5------------|
E|--------------------------1-------------1/3-3-------------6|

e|------------------1-----------------1------------x-x---------x-x-------------------------------------------|
B|------4---6---3---1-3h4p1---------1---1----------x-x---------x-x-------------------------------------------|
G|----3-------------1-------------1------1-1--1--1-x-x-3--3--3-x-x--1--1--1--1--1--1--1--x--3--3--3--3--3-3-3|
D|--5---------------3-----------1----------1--1--1-x-x-3--3--3-x-x--1--1--1--1--1--1--1--x--3--3--3--3--3-3-3|
A|3-------3---3-----1---------3------------3--3--3-x-x-5--5--5-x-x--3--3--3--3--3--3--3--x--5--5--5--5--5-5-5|
E|--------------------------1--------------1--1--1-x-x-3--3--3-x-x--1--1--1--1--1--1--1--x--3--3--3--3--3-3-3|

[After Chorus 2]

e|--------3------------------5---------------1-----------------3------|
B|------4---4--------------6---6-----------1---1-------------3---3----|(x3)
G|----3-------3----------5-------5-------1-------1---------3-------3--|
D|--5------------------7---------------3-----------------5------------|
A|3--------------3h5-5------------------------------------------------|
E|---------------------------------0h1-------------1h3-3-------------6|

e|--------3------------------5---------------1--------------------------------1----------------------|
B|------4---4--------------6---6-----------1---1-----------1-------3--------1---1-----------1-------3|
G|----3-------3----------5-------5-------1-------1-------1-------3--------1-------1-------1-------3--|
D|--5------------------7---------------3---------------3-------5--------3---------------3-------5----|
A|3--------------3h5-5-------------------------------------------------------------------------------|
E|---------------------------------0h1-------------1-1-------3-------1--------------1-1-------3------|


e|----------------------------------------------------------------|
B|------1---------------1---------------3---------------3---------|
G|----1---1-----------1---1-----------3---3-----------3---3-------|
D|--3-------3---3---3-------3---3---5-------5---5---5-------5---5-|
A|----------------------------------------------------------------|
E|1-----------1---1-----------1---3-----------3---3-----------3---|


[Solo]

e|------------------------------------------------------------------|
B|------------------------------------------------------------------|(x2)
G|---------0----------------0---------------0---------------0-------|
D|-----0-----0---0------0-----0---------0-----0---------0-----0-----|
A|--10----------------8---8-------8---6---6-------6---5---5-------5-|
E|8------8-----8----6-----------6---4-----------4---3-----------3---|

e|---------------------------------------------------------------------------------------------------------|
B|---------------------------------------------------------------------------------------------------------|
G|7h8-8-8-8-8-8-8------------------------------------------------------------------------------------------|
D|-------------------6--8-10-10h12--10-8--6h8-8----6-8-8h10-8--10-8--6-6h8-6--8-6--5-6h8--8--8--8--6-5h6p5-|
A|---------------------------------------------------------------------------------------------------------|
E|---------------------------------------------------------------------------------------------------------|

e|----------------------------------------------------------------|
B|----------------------------------------------------------------|(x2)
G|--------0---------------0---------------0---------------4-------|
D|----0-----0---0-----0-----0---0-----0-----0---0-----3-----3---3-|
A|--3---3-----3-----3---3-----3-----5---5-----5-----5---5-----5---|
E|1---------------1---------------3---------------3---------------|

e|------------------------------------------------------------------|
B|------------------------------------------------------------------|(x4)
G|---------0----------------0---------------0---------------0-------|
D|-----0-----0---0------0-----0---------0-----0---------0-----0-----|
A|--10----------------8---8-------8---6---6-------6---5---5-------5-|
E|8------8-----8----6-----------6---4-----------4---3-----------3---|

e|----------------------------------------------------------------|
B|----------------------------------------------------------------|(x2)
G|--------0---------------0---------------0---------------4-------|
D|----0-----0---0-----0-----0---0-----0-----0---0-----3-----3---3-|
A|--3---3-----3-----3---3-----3-----5---5-----5-----5---5-----5---|
E|1---------------1---------------3---------------3---------------|


[Outro After Chorus]

e|--------3------------------5---------------1-----------------3------|
B|------4---4--------------6---6-----------1---1-------------3---3----|(x4)
G|----3-------3----------5-------5-------1-------1---------3-------3--|
D|--5------------------7---------------3-----------------5------------|
A|3--------------3h5-5------------------------------------------------|
E|---------------------------------0h1-------------1h3-3-------------6|

e|--------3------------------5---------------1--------------------------------1----------------------|
B|------4---4--------------6---6-----------1---1-----------1-------3--------1---1-----------1-------3|
G|----3-------3----------5-------5-------1-------1-------1-------3--------1-------1-------1-------3--|
D|--5------------------7---------------3---------------3-------5--------3---------------3-------5----|
A|3--------------3h5-5-------------------------------------------------------------------------------|
E|---------------------------------0h1-------------1-1-------3-------1--------------1-1-------3------|


e|--------1-------------------------------1-----------------3-------------|  
B|------1---1-----------1-------3-------1---1-------------3---3------3----|            
G|----1-------1-------1-------3-------1-------1---------3-------3----x----|    
D|--3---------------3-------5-------3-----------------5--------------5----|            
A|-------------------------------------------------------------------3----|           
E|1-------------1-1-------3-------1-------------1h3-3-------------3-------|


************************************

| x  Dead note
| h  Hammer-on
| p  Pull-off
| /  Slide up

************************************
Suggest correction
Give kudos to tab author, rate the tab!
1 2 3 4 5
comments
print report bad tab
guest
You may want to rate the tab now too:
select rating
Wanna post a correction for this tab? Suggest correction