Oops, an error
Loading. Please wait.

Reintro Bass Tab

7 views 1 this week
no commentswrite comment
1 2 3 4 5
3 more votes to show rating
add to favorites
launch autoscroll
font size
0
reset
guitar tuner
Autoscroll
slow
fast
+/-
esc
set tempo
stop
Help us to improve Ultimate-Guitar.com Take our survey!
×
Author
Difficulty
Tuning
advanced
D A D G B E
About this tab version
Its an original of our song. Was this info helpful? Yes No
[Intro]

G|------------------------------------------------------------------------------------|
D|------------------------------------------------------------------------------------|
A|--------------------7-8-5-----------------7-8-5----------------7-8-5----------------|
D|8--------8--8--7-----------5----5--5--7---------8----8--8--7---------5----7----0----|
A|------------------------------------------------------------------------------------|


[Verse]

G|-------------------------------------------------------------------------------------------------|
D|-------------------------------------------------------------------------------------------------|
A|-------------------------------------------------------------------------------------------------|
D|1-1----1-1----0-0----0-0----5-5--------3-3--------1-1----1-1----0-0----0-0----5--5-5--5-5--5-5-5-|
A|-------------------------------------------------------------------------------------------------|

G|------------------|-------------------------------------------------------------------------------|
D|------------------|-------------------------------------------------------------------------------|
A|------------------|-----------------(8th Notes)--------------------------------5---------------3-5|
D|8--8-8--8-8--8-8-8|1-1-1-1-1-1-1-1-1-1-1-1-0-0-0-0-0-0-0-0-0-0-0-0-5--5-5--5-5---5-3--3-3--3-3----|
A|------------------|-------------------------------------------------------------------------------|

G|---------------------------------------------------------------------------------------|
D|---------------------------------------------------------------------------------------|
A|-------------(8th Notes)---------------------------------------------------------------|
D|1-1-1-1-1-1-1-1-1-1-1-1-0-0-0-0-0-0-0-0-0-0-0-0-5--5-5--5-5--5-5-5--8--8-8--8-8--8-8-8-|
A|---------------------------------------------------------------------------------------|

G|------------------------------------------------------------------|
D|------------------------------------------------------------------|(x3)
A|----------------------------------------------5---------------3-5-|
D|1--1-1--1-1-1/3-3-0--0-0--0-0-1-0-5--5-5--5-5---5-3--3-3--3-3-----|
A|------------------------------------------------------------------|

G|-------------------------------------------------------------|
D|-------------------------------------------------------------|
A|-------------------------------------------------------------|
D|1--1-1--1-1-1/3-3-0--0-0--0-0-1-0-5--5-5-5--5--5-5-5---8-----|
A|-------------------------------------------------------------|

[Pre Chorus]

G|-------------------------------(Start Repeat Here)---------------------------------------------------|
D|-----------------------------------------------------------------------------------------------------|
A|--------------------------------------------------------------------------------3----------------3-5-|
D|5--5-5-5--5-5-5--5--5-5-5--5-5-5--8--8-8-8--8-8-8--8--8-8-8--8-8-8--3--3-3-3--3---3--3--3-3-3--3-----|
A|-----------------------------------------------------------------------------------------------------|

G|--------------------------------|
D|--------------------------------|(X2)
A|------------1-3-------------1-0-|
D|1--1-1-1--1-----0--0-0-0--0-----|
A|--------------------------------|

[Chorus]

G|------------------------------------------------------------------------|
D|------------------------------------------------------------------------|(X2)
A|------------------------------------------------------------------------|
D|5--5-5-5--5-5-5-8--8-8-8--8-8-8-10--10-10-10--10-10-10-7--7-7-7--7-3--0-|
A|------------------------------------------------------------------------|

G|------------------------------------------------------------------------|
D|------------------------------------------------------------------------|(X2)
A|------------5---------------8--------------------10---------------------|
D|5--5-5-5--5---5-8--8-8-8--8---8-10--10-10-10--10----10-7--7-7-7--7-0--3-|
A|------------------------------------------------------------------------|


[Interlude]

G|-----------------------------------------------------------------------------------------|
D|-----------------------------------------------------------------------------------------|(X2)
A|-----------------------------------------------------------------------------------------|
D|1--1-1-1-1--1--1-1-1-1-1/3--3-3-3-3--3--3-3-3-3-0--0-0-0-0--0--0-0-0-0-5--5-5-5-5--5-7-8-|
A|-----------------------------------------------------------------------------------------|

[Verse 2]

G|-------------------------------------------------------------------------------|
D|-------------------------------------------------------------------------------|<---Start Repeat here
A|-----------------(8th Notes)--------------------------------5---------------3-5|
D|1-1-1-1-1-1-1-1-1-1-1-1-0-0-0-0-0-0-0-0-0-0-0-0-5--5-5--5-5---5-3--3-3--3-3----|
A|-------------------------------------------------------------------------------|

G|---------------------------------------------------------------------------------------|
D|---------------------------------------------------------------------------------------|(X2)
A|-------------(8th Notes)---------------------------------------------------------------|
D|1-1-1-1-1-1-1-1-1-1-1-1-0-0-0-0-0-0-0-0-0-0-0-0-5--5-5--5-5--5-5-5--8--8-8--8-8--8-8-8-|
A|---------------------------------------------------------------------------------------|

G|------------------------------------------------------------------|
D|------------------------------------------------------------------|(x3)
A|----------------------------------------------5---------------3-5-|
D|1--1-1--1-1-1/3-3-0--0-0--0-0-1-0-5--5-5--5-5---5-3--3-3--3-3-----|
A|------------------------------------------------------------------|

G|-------------------------------------------------------------|
D|-------------------------------------------------------------|
A|-------------------------------------------------------------|
D|1--1-1--1-1-1/3-3-0--0-0--0-0-1-0-5--5-5-5--5--5-5-5---8-----|
A|-------------------------------------------------------------|

[Pre Chorus 2]

G|-------------------------------(Start Repeat Here)---------------------------------------------------|
D|-----------------------------------------------------------------------------------------------------|
A|--------------------------------------------------------------------------------3----------------3-5-|
D|5--5-5-5--5-5-5--5--5-5-5--5-5-5--8--8-8-8--8-8-8--8--8-8-8--8-8-8--3--3-3-3--3---3--3--3-3-3--3-----|
A|-----------------------------------------------------------------------------------------------------|

G|--------------------------------|
D|--------------------------------|(X2)
A|------------1-3-------------1-0-|
D|1--1-1-1--1-----0--0-0-0--0-----|
A|--------------------------------|

[Chorus 2]

G|------------------------------------------------------------------------|
D|------------------------------------------------------------------------|(X2)
A|------------------------------------------------------------------------|
D|5--5-5-5--5-5-5-8--8-8-8--8-8-8-10--10-10-10--10-10-10-7--7-7-7--7-3--0-|
A|------------------------------------------------------------------------|

G|------------------------------------------------------------------------|
D|------------------------------------------------------------------------|(X2)
A|------------5---------------8--------------------10---------------------|
D|5--5-5-5--5---5-8--8-8-8--8---8-10--10-10-10--10----10-7--7-7-7--7-0--3-|
A|------------------------------------------------------------------------|

[Breakdown]

G|----------------------------------------------------------------------------------|
D|----------------------------------------------------------------------------------|(X2)
A|----------------------------------------------------------------------------------|
D|5--5-5-5--5--5-5-5-5--5--5-5-5---------6--6-6-6--6--6-6-6-6--6--6-6-6--3--3-3-3-3-|
A|-------------------------------5--5--5--------------------------------------------|

G|----------------------------------------------------------------------------------|
D|----------------------------------------------------------------------------------|
A|----------------------------------------------------------------------------------|
D|5--5-5-5--5--5-5-5-5--5--5-5-5---------6--6-6-6--6--6-6-6-6--3--3-3-3--3--3-3-3-3-|
A|-------------------------------5--5--5--------------------------------------------|

G|--------------------------------------------------------------------------------|
D|--------------------------------------------------------------------------------|
A|--------------------------------------------------------------------------------|
D|5--5-5-5--5--5-5-5-5--5--5-5-5---------6--6-6-6--6--6-6-6-6--3--3-3-3--3--5--6--|
A|-------------------------------5--5--5------------------------------------------|

G|-----------------------------------------------------------------------------|
D|-----------------------------------------------------------------------------|(X3)
A|-----------------------------------------------------------------------------|
D|5--5-5-5--5--5--5-5--5--5-5-5---------6--6-6-6--6--6--6-6--6--6-6-6--3--3--3-|
A|------------------------------5--5--5----------------------------------------|

G|-----------------------------------------------------------------------------|
D|-----------------------------------------------------------------------------|(X3)
A|-----------------------------------------------------------------------------|
D|5--5-5-5--5--5--5-5--5--5-5-5---------6--6-6-6--6--6--6-6--6--6-6-6--3--5--6-|
A|------------------------------5--5--5----------------------------------------|

G|-----------------------------------------------------------------------------|
D|-----------------------------------------------------------------------------|
A|-----------------------------------------------------------------------------|
D|5--5-5-5--5--5--5-5--5--5-5-5---------6--6-6-6--6--6--6-6--3--3-3-3--3--5--6-|
A|------------------------------5--5--5----------------------------------------|

[Solo]

G|---------------------------------------------------------------------------|
D|---------------------------------------------------------------------------|(X2)
A|---------------------------------------------------------------------------|
D|5--5-5-5--5--6--5--5--5-5-5--3--3--3--5--5-5-5--5--6--5-6/8--8--8--8--8--8-|
A|---------------------------------------------------------------------------|

G|---------------------------------------------------------------------------|
D|---------------------------------------------------------------------------|
A|-----------------------------3--3--3---------------------------------------|
D|0--0-0-0--0--1--0--0--0-0-0-----------0--0-0-0--0--1--0-1/3--3--3--1--1--1-|
A|---------------------------------------------------------------------------|

G|---------------------------------------------------------------------------|
D|---------------------------------------------------------------------------|
A|-----------------------------3--3--3---------------------------------------|
D|0--0-0-0--0--1--0--0--0-0-0-----------0--0-0-0--0--1--0-1/3--3--3--3--3--3-|
A|---------------------------------------------------------------------------|

G|---------------------------------------------------------------------------|
D|---------------------------------------------------------------------------|(X2)
A|---------------------------------------------------------------------------|
D|5--5-5-5--5--6--5--5--5-5-5--3--3--3--5--5-5-5--5--6--5-6/8--8--8--8--8--8-|
A|---------------------------------------------------------------------------|

G|---------------------------------------------------------------------------|
D|---------------------------------------------------------------------------|(X2)
A|-----------------------------3--3--3---------------------------------------|
D|0--0-0-0--0--1--0--0--0-0-0-----------0--0-0-0--0--1--0-1/3--3--3--1--1--1-|
A|---------------------------------------------------------------------------|

[Solo Interlude]

G|----------------------------------------------|
D|----------------------------------------------|(X2)
A|--------------3-5--6-5-------------6-6h8--6-5-|
D|5----6----3------------5----6----3------------|
A|----------------------------------------------|

G|----------------------------------------------|
D|----------------------------------------------|
A|----------------(8th Notes)-------------------|
D|0--0-0-0-0-0-0-0-0-0-0-3--3-3-3-3-3-3-3-3-3-3-|
A|----------------------------------------------|

[Chorus 3]

G|------------------------------------------------------------------------|
D|------------------------------------------------------------------------|
A|------------------------------------------------------------------------|
D|5--5-5-5--5-5-5-8--8-8-8--8-8-8-10--10-10-10--10-10-10-7--7-7-7--7-3--0-|
A|------------------------------------------------------------------------|

G|------------------------------------------------------------------------|
D|------------------------------------------------------------------------|
A|------------------------------------------------------------------------|
D|5--5-5-5--5-5-5-8--8-8-8--8-8-8-10--10-10-10--10-10-10-7--7-7-7--7-0--3-|
A|------------------------------------------------------------------------|

G|------------------------------------------------------------------------|
D|------------------------------------------------------------------------|
A|------------5---------------8--------------------10---------------------|
D|5--5-5-5--5---5-8--8-8-8--8---8-10--10-10-10--10----10-7--7-7-7--7-3--0-|
A|------------------------------------------------------------------------|

G|------------------------------------------------------------------------|
D|------------------------------------------------------------------------|
A|------------5---------------8--------------------10---------------------|
D|5--5-5-5--5---5-8--8-8-8--8---8-10--10-10-10--10----10-7--7-7-7--7-0--3-|
A|------------------------------------------------------------------------|

[Outro Chorus]

G|----------------------------------------------------------|
D|----------------------------------------------------------|(X3)
A|-----5---5--------8---8----------10----10---------7---7---|
D|5--5---5---5-8--8---8---8-10--10----10----10-7--7---7---7-|
A|----------------------------------------------------------|

G|----------------------------------------------------------|
D|----------------------------------------------------------|
A|-----5---5--------8---8-----------------------------------|
D|5--5---5---5-8--8---8---8-10-10-10-10-10-10-7-7-7-7-7-7-5-|
A|----------------------------------------------------------|



************************************

| x   Dead note
| g   Grace note
| (n) Ghost note
| h   Hammer-on
| p   Pull-off
| r   Release
| >   Accented note
| t   Tapping
| b   Bend
| br  Bend release
| pb  Pre-bend
| pbr Pre-bend release
| /   Slide up
| \   Slide down
| ~   Vibrato
| s   Slap
| P   Pop
| PM  Palm mute
| TR  Trill
| N   Tremolo

************************************
Suggest correction
Give kudos to tab author, rate the tab!
1 2 3 4 5
comments
print report bad tab
guest
You may want to rate the tab now too:
select rating
Wanna post a correction for this tab? Suggest correction