Oops, an error
Loading. Please wait.

Reintro Tab

4 views 1 this week
no commentswrite comment
1 2 3 4 5
3 more votes to show rating
add to favorites
launch autoscroll
font size
0
reset
how to read this tab
guitar tuner
Autoscroll
slow
fast
+/-
esc
set tempo
stop
Help us to improve Ultimate-Guitar.com Take our survey!
×
Author
Difficulty
Tuning
advanced
D A D G B E
About this tab version
Its an original of our song. Was this info helpful? Yes No
[Intro]

e|--GTR--|-----------------------------------------------------------------------------------------------|
B|-intro-|-----------------------------------------------------------------------------------------------|
G|-------|-----------------------------------------------------------------------------------------------|
D|-------|-----------------------------------------------------------------------------------------------|
A|-------|----8h10-12p10p8----8h10-12p10p8----8h10-12p10p8----8h10-12p10p8---8h10-12p10p8---8h10-12p10p8-|
D|-------|-12--------------12--------------10--------------10--------------8--------------8--------------|

e|------------------------------------------------------------------------------------------------|
B|------------------------------------------------------------------------------------------------|
G|------------------------------------------------------------------------------------------------|
D|------------------------------------------------------------------------------------------------|
A|---8h10-12p10p8----8h10-12p10p8----8h10-12p10p8----8h10-12p10p8----8h10-12p10p8----8h10-12p10p8-|
D|10--------------10--------------12--------------12--------------10--------------10--------------|

e|----------------------------------------|
B|----------------------------------------|
G|----------------------------------------|
D|-------------------------------0--------|
A|--8h10-12p10p8----8h10-12p10p8-0--------|
D|8--------------10--------------0--------|

[Verse]

e|---------------------------(Start Repeat here)--------------------------------------------------|
B|------------------------------------------------------------------------------------------------|
G|------------------------------------------------------------------------------------------------|
D|------------------------------------------------------------------------------------------------|
A|----3p0-3p0-----1p0-1p0-----3p0-3p0-----1p0-1p0-----6p0-6p0-8p0-6p0-5p0-----5p0-5p0-6p0-5p0-3p0-|
D|1-1---------1-1---------0-0---------0-0---------5-5---------------------3-3---------------------|

e|----------------------------------------------------------------------------------------------|
B|----------------------------------------------------------------------------------------------|(X2)
G|----------------------------------------------------------------------------------------------|
D|-------------------------------------------------7--7-7--7-7--7-7-7-10--10-10--10-10--10-10-10|
A||----3p0-3p0-----1p0-1p0-----3p0-3p0-----1p0-1p0-5--5-5--5-5--5-5-5--8---8--8---8--8---8--8--8|
D|1-1---------1-1---------0-0---------0-0----------5--5-5--5-5--5-5-5--8---8--8---8--8---8--8--8|

e|----------------------------------------------------------------------------|
B|----------------------------------------------------------------------------|(X4)
G|----------------------------------------------------------------------------|
D|1--1-1--1-1--1h3--3-0--0-0---------------5--5-5--5-5-------3--3-3--3-3------|
A|1--1-1--1-1--1h3--3-0--0-0-0h1h3-1p0h1p0-5--5-5--5-5-5h6-6-3--3-3--3-3-5h6-6|
D|1--1-1--1-1--1h3--3-0--0-0---------------5--5-5--5-5-------3--3-3--3-3------|

e|-------------------------|
B|-------------------------|
G|-------------------------|
D|7--7-7-7--7--7-7-7-10----|
A|5--5-5-5--5--5-5-5--8----|
D|5--5-5-5--5--5-5-5--8----|

[Pre Chorus]

e|---------------------------------(Start Repeat here)--------------------------------------------|
B|------------------------------------------------------------------------------------------------|
G|--------------PM---------------------PM------------------------PM------------------------PM-----|
D|5--5-5--5--5--5-5-5-5--5--5-5--5--5--5-5-5-5-10--10-10-10--10--8-8-8-8-10--10-10-10--10--8-8-8-8|
A|5--5-5--5--5--5-5-5-5--5--5-5--5--5--5-5-5-5--8---8--8--8---8--8-8-8-8--8---8--8--8---8--8-8-8-8|
D|5--5-5--5--5--5-5-5-5--5--5-5--5--5--5-5-5-5--8---8--8--8---8--8-8-8-8--8---8--8--8---8--8-8-8-8|

e|---------------------------------------------------------------------------------|
B|---------------------------------------------------------------------------------|(X2)
G|-------------PM--------------------Pm--------------------------------------------|
D|3--3-3-3--3--3-3-3-3--7--7-7-7--7--7-7-7-7--3--3-3--3-3-3--3-3-3--3-3--3-3-3--3-3|
A|3--3-3-3--3--3-3-3-3--3--3-3-3--3--3-3-3-3--1--1-1--1-1-1--1-1-0--0-0--0-0-0--0-0|
D|3--3-3-3--3--3-3-3-3--3--3-3-3--3--3-3-3-3--1--1-1--1-1-1--1-1-0--0-0--0-0-0--0-0|

[Chorus]

e|--------------------------------(Start Repeat here)----------------------------------------------|
B|-------------------------------------------------------------------------------------------------|
G|-------------------------------------------------------------------------------------------------|
D|7--7-7--7--x-x-7-7-x-x-10--10-10--10-x-x-10-10-x-x-12--12-12--12-x-x-12-12-x-x-8--8-8-8h10p8-7-8-|
A|5--5-5--5--x-x-5-5-x-x--8---8--8---8-x-x--8--8-x-x-10--10-10--10-x-x-10-10-x-x-7--7-7------------|
D|5--5-5--5--x-x-5-5-x-x--8---8--8---8-x-x--8--8-x-x-10--10-10--10-x-x-10-10-x-x-7--7-7------------|

e|-------------------------------------------------------------------------------------------------|
B|-------------------------------------------------------------------------------------------------|(X2)
G|-------------------------------------------------------------------------------------------------|
D|7--7-7--7--x-x-7-7-x-x-10--10-10--10-x-x-10-10-x-x-12--12-12--12-x-x-12-12-x-x-8--8-8-8h10p8-7-5-|
A|5--5-5--5--x-x-5-5-x-x--8---8--8---8-x-x--8--8-x-x-10--10-10--10-x-x-10-10-x-x-7--7-7------------|
D|5--5-5--5--x-x-5-5-x-x--8---8--8---8-x-x--8--8-x-x-10--10-10--10-x-x-10-10-x-x-7--7-7------------|


[Interlude]

e|-----------------------------------------------------------------------------------------|
B|-----------------------------------------------------------------------------------------|(X2)
G|---PM----------PM-----------PM----------PM---------PM----------PM---------PM-------------|
D|1--1-1-1-1--1--1-1-1-1-1/3--3-3-3-3--3--3-3-3-3-0--0-0-0-0--0--0-0-0-0-5--5-5-5-5--5-7-8-|
A|1--1-1-1-1--1--1-1-1-1-1/3--3-3-3-3--3--3-3-3-3-0--0-0-0-0--0--0-0-0-0-5--5-5-5-5--5-7-8-|
D|1--1-1-1-1--1--1-1-1-1-1/3--3-3-3-3--3--3-3-3-3-0--0-0-0-0--0--0-0-0-0-5--5-5-5-5--5-7-8-|

[Verse 2]

e|---------------------------(Start Repeat here)--------------------------------------------------|
B|------------------------------------------------------------------------------------------------|
G|------------------------------------------------------------------------------------------------|
D|------------------------------------------------------------------------------------------------|
A|----3p0-3p0-----1p0-1p0-----3p0-3p0-----1p0-1p0-----6p0-6p0-8p0-6p0-5p0-----5p0-5p0-6p0-5p0-3p0-|
D|1-1---------1-1---------0-0---------0-0---------5-5---------------------3-3---------------------|

e|----------------------------------------------------------------------------------------------|
B|----------------------------------------------------------------------------------------------|(X2)
G|----------------------------------------------------------------------------------------------|
D|-------------------------------------------------7--7-7--7-7--7-7-7-10--10-10--10-10--10-10-10|
A||----3p0-3p0-----1p0-1p0-----3p0-3p0-----1p0-1p0-5--5-5--5-5--5-5-5--8---8--8---8--8---8--8--8|
D|1-1---------1-1---------0-0---------0-0----------5--5-5--5-5--5-5-5--8---8--8---8--8---8--8--8|

e|----------------------------------------------------------------------------|
B|----------------------------------------------------------------------------|(X4)
G|----------------------------------------------------------------------------|
D|1--1-1--1-1--1h3--3-0--0-0---------------5--5-5--5-5-------3--3-3--3-3------|
A|1--1-1--1-1--1h3--3-0--0-0-0h1h3-1p0h1p0-5--5-5--5-5-5h6-6-3--3-3--3-3-5h6-6|
D|1--1-1--1-1--1h3--3-0--0-0---------------5--5-5--5-5-------3--3-3--3-3------|

e|-------------------------|
B|-------------------------|
G|-------------------------|
D|7--7-7-7--7--7-7-7-10----|
A|5--5-5-5--5--5-5-5--8----|
D|5--5-5-5--5--5-5-5--8----|

[Pre Chorus 2]

e|---------------------------------(Start Repeat here)--------------------------------------------|
B|------------------------------------------------------------------------------------------------|
G|--------------PM---------------------PM------------------------PM------------------------PM-----|
D|5--5-5--5--5--5-5-5-5--5--5-5--5--5--5-5-5-5-10--10-10-10--10--8-8-8-8-10--10-10-10--10--8-8-8-8|
A|5--5-5--5--5--5-5-5-5--5--5-5--5--5--5-5-5-5--8---8--8--8---8--8-8-8-8--8---8--8--8---8--8-8-8-8|
D|5--5-5--5--5--5-5-5-5--5--5-5--5--5--5-5-5-5--8---8--8--8---8--8-8-8-8--8---8--8--8---8--8-8-8-8|

e|---------------------------------------------------------------------------------|
B|---------------------------------------------------------------------------------|(X2)
G|-------------PM--------------------Pm--------------------------------------------|
D|3--3-3-3--3--3-3-3-3--7--7-7-7--7--7-7-7-7--3--3-3--3-3-3--3-3-3--3-3--3-3-3--3-3|
A|3--3-3-3--3--3-3-3-3--3--3-3-3--3--3-3-3-3--1--1-1--1-1-1--1-1-0--0-0--0-0-0--0-0|
D|3--3-3-3--3--3-3-3-3--3--3-3-3--3--3-3-3-3--1--1-1--1-1-1--1-1-0--0-0--0-0-0--0-0|

[Chorus 2]

e|--------------------------------(Start Repeat here)----------------------------------------------|
B|-------------------------------------------------------------------------------------------------|
G|-------------------------------------------------------------------------------------------------|
D|7--7-7--7--x-x-7-7-x-x-10--10-10--10-x-x-10-10-x-x-12--12-12--12-x-x-12-12-x-x-8--8-8-8h10p8-7-8-|
A|5--5-5--5--x-x-5-5-x-x--8---8--8---8-x-x--8--8-x-x-10--10-10--10-x-x-10-10-x-x-7--7-7------------|
D|5--5-5--5--x-x-5-5-x-x--8---8--8---8-x-x--8--8-x-x-10--10-10--10-x-x-10-10-x-x-7--7-7------------|

e|-------------------------------------------------------------------------------------------------|
B|-------------------------------------------------------------------------------------------------|(X2)
G|-------------------------------------------------------------------------------------------------|
D|7--7-7--7--x-x-7-7-x-x-10--10-10--10-x-x-10-10-x-x-12--12-12--12-x-x-12-12-x-x-8--8-8-8h10p8-7-5-|
A|5--5-5--5--x-x-5-5-x-x--8---8--8---8-x-x--8--8-x-x-10--10-10--10-x-x-10-10-x-x-7--7-7------------|
D|5--5-5--5--x-x-5-5-x-x--8---8--8---8-x-x--8--8-x-x-10--10-10--10-x-x-10-10-x-x-7--7-7------------|

[Break down]

e|-------------------------------------------------------------------------------------|
B|-------------------------------------------------------------------------------------|(X2)
G|---PM--------PM----------PM--------PM---------PM--------PM----------PM--------PM-----|
D|5--5-5-5--5--5-5-5-5--5--5-5-5--5--5-5-5-5-6--6-6-6--6--6-6-6-6--6--6-6-6--3--3-3-3-3|
A|5--5-5-5--5--5-5-5-5--5--5-5-5--5--5-5-5-5-6--6-6-6--6--6-6-6-6--6--6-6-6--3--3-3-3-3|
D|5--5-5-5--5--5-5-5-5--5--5-5-5--5--5-5-5-5-6--6-6-6--6--6-6-6-6--6--6-6-6--3--3-3-3-3|

e|---------------------------------------------------------------------------------|
B|---------------------------------------------------------------------------------|(X2)
G|---PM--------PM----------PM-----------------PM--------PM----------PM-------------|
D|5--5-5-5--5--5-5-5-5--5--5-5-------------6--6-6-6--6--6-6-6-6--3--3-3------------|
A|5--5-5-5--5--5-5-5-5--5--5-5------5------6--6-6-6--6--6-6-6-6--3--3-3------3h5p3-|
D|5--5-5-5--5--5-5-5-5--5--5-5-0h5h6-6p5p0-6--6-6-6--6--6-6-6-6--3--3-3-3h5h6-----6|

e|-----------------------------------------------------------------------------------|
B|8---------8--8-------8---------8--8-------8---------8--8-------8-------------------|(X3)
G|7---------7--7-------7---------7--7-------7---------7--7-------7-------------------|
D|5--5-5-5--5--5--5-5--5--5-5-5--5--5--5-5--6--6-6-6--6--6--6-6--6--6-6-6--3--3--3-3-|
A|5--5-5-5--5--5--5-5--5--5-5-5--5--5--5-5--6--6-6-6--6--6--6-6--6--6-6-6--3--3--3-3-|
D|5--5-5-5--5--5--5-5--5--5-5-5--5--5--5-5--6--6-6-6--6--6--6-6--6--6-6-6--3--3--3-3-|

e|-------------------------------------------------------------------------------|
B|8---------8--8-------8---------8--8-------8---------8--8-------8---------------|
G|7---------7--7-------7---------7--7-------7---------7--7-------7---------------|
D|5--5-5-5--5--5--5-5--5--5-5-5--5--5--5-5--6--6-6-6--6--6--6-6--6--6-6-6--3-5-6-|
A|5--5-5-5--5--5--5-5--5--5-5-5--5--5--5-5--6--6-6-6--6--6--6-6--6--6-6-6--3-5-6-|
D|5--5-5-5--5--5--5-5--5--5-5-5--5--5--5-5--6--6-6-6--6--6--6-6--6--6-6-6--3-5-6-|

e|----------------------------------------------------------------------------------|
B|8---------8--8-------8---------8--8-------8---------8--8-------8------------------|(X4)
G|7---------7--7-------7---------7--7-------7---------7--7-------7------------------|
D|5--5-5-5--5--5--5-5--5--5-5-5--5--5--5-5--6--6-6-6--6--6--6-6--6--6-6-------------|
A|5--5-5-5--5--5--5-5--5--5-5-5--5--5--5-5--6--6-6-6--6--6--6-6--6--6-6------3h5p3--|
D|5--5-5-5--5--5--5-5--5--5-5-5--5--5--5-5--6--6-6-6--6--6--6-6--6--6-6-3h5h6-----6-|

[Solo]

e|---------------------------------------------------------------------------|
B|---------------------------------------------------------------------------|(X2)
G|---------------------------------------------------------------------------|
D|5--5-5-5--5--6--5--5--5-5-5--3--3--3--5--5-5-5--5--6--5-6/8--8--8--8--8--8-|
A|5--5-5-5--5--6--5--5--5-5-5--3--3--3--5--5-5-5--5--6--5-6/8--8--8--8--8--8-|
D|5--5-5-5--5--6--5--5--5-5-5--3--3--3--5--5-5-5--5--6--5-6/8--8--8--8--8--8-|

e|-----------------------------------------------------------------------------------------------------|
B|------------------10---8-10-11-11/13-11-11h10p11-8-10--6--4------------------------------------------|
G|--------------------------------------------------------------------------------------------5--5--5--|
D|0--0-0-0--0--1--0--------------------------------------------0-0--0-0-0--0--1--0--0--0-0-0--3--3--3--|
A|0--0-0-0--0--1--0--------------------------------------------0-0--0-0-0--0--1--0--0--0-0-0-----------|
D|0--0-0-0--0--1--0--------------------------------------------0-0--0-0-0--0--1--0--0--0-0-0-----------|

e|-----------------------------------------------------------------------------------------------------------|
B|-------------------------------------8h10h11p10-8h10h11p10--8h10h11p10-10h11h13p11-10h11h13p11-10h11h13p11-|
G|-----------------------------------------------------------------------------------------------------------|
D|0--0-0-0--0--1--0-1/3--3--3--3--3--3-----------------------------------------------------------------------|
A|0--0-0-0--0--1--0-1/3--3--3--3--3--3-----------------------------------------------------------------------|
D|0--0-0-0--0--1--0-1/3--3--3--3--3--3-----------------------------------------------------------------------|

e|------------------------------------------------------------------------------------------|
B|7h8h10p8-7h8h10p8-7h8h10p8-10/11--10-10---------------------------------------------------|
G|------------------------------------------------------------------------------------------|
D|-----------------------------------------5--5-5-5--5--6--5--5--5-5-5--3--3--3--5--5-5-5--5|
A|-----------------------------------------5--5-5-5--5--6--5--5--5-5-5--3--3--3--5--5-5-5--5|
D|-----------------------------------------5--5-5-5--5--6--5--5--5-5-5--3--3--3--5--5-5-5--5|

e|------------------------|-----------------------(Start Repeat here)----------------------------------|
B|------------------------|----------------------------------------------------------------------------|(X2)
G|------------------------|------------------------------5--5--5---------------------------------------|
D|6--5-6/8--8--8--8--8--8-|-0--0-0-0--0--1--0--0--0-0-0--3--3--3--0--0-0-0--0--1--0-1/3--3--3--1--1--1-|
A|6--5-6/8--8--8--8--8--8-|-0--0-0-0--0--1--0--0--0-0-0-----------0--0-0-0--0--1--0-1/3--3--3--1--1--1-|
D|6--5-6/8--8--8--8--8--8-|-0--0-0-0--0--1--0--0--0-0-0-----------0--0-0-0--0--1--0-1/3--3--3--1--1--1-|

[Solo Interlude]

e|------------------------------------|
B|------------------------------------|(X4)
G|------------------------------------|
D|------------------------------------|
A|-6--6--5--5--5--3--6--6--5--5--5--2-|
D|5--5--5--6--6--6--3--3--3--3--3--3--|

e|----------------------------------------------|
B|----------------------------------------------|
G|---PM---------------------PM------------------|
D|0--0-0-0-0-0-0-0-0-0-0-3--3-3-3-3-3-3-3-3-3-3-|
A|0--0-0-0-0-0-0-0-0-0-0-3--3-3-3-3-3-3-3-3-3-3-|
D|0--0-0-0-0-0-0-0-0-0-0-3--3-3-3-3-3-3-3-3-3-3-|

[Outro]

e|--------------------------------(Start Repeat here)----------------------------------------------|
B|-------------------------------------------------------------------------------------------------|
G|-------------------------------------------------------------------------------------------------|
D|7--7-7--7--x-x-7-7-x-x-10--10-10--10-x-x-10-10-x-x-12--12-12--12-x-x-12-12-x-x-8--8-8-8h10p8-7-8-|
A|5--5-5--5--x-x-5-5-x-x--8---8--8---8-x-x--8--8-x-x-10--10-10--10-x-x-10-10-x-x-7--7-7------------|
D|5--5-5--5--x-x-5-5-x-x--8---8--8---8-x-x--8--8-x-x-10--10-10--10-x-x-10-10-x-x-7--7-7------------|

e|-------------------------------------------------------------------------------------------------|
B|-------------------------------------------------------------------------------------------------|(X2)
G|-------------------------------------------------------------------------------------------------|
D|7--7-7--7--x-x-7-7-x-x-10--10-10--10-x-x-10-10-x-x-12--12-12--12-x-x-12-12-x-x-8--8-8-8h10p8-7-5-|
A|5--5-5--5--x-x-5-5-x-x--8---8--8---8-x-x--8--8-x-x-10--10-10--10-x-x-10-10-x-x-7--7-7------------|
D|5--5-5--5--x-x-5-5-x-x--8---8--8---8-x-x--8--8-x-x-10--10-10--10-x-x-10-10-x-x-7--7-7------------|

e|---------------------------------------------------------|
B|---------------------------------------------------------|(X3)
G|---------------------------------------------------------|
D|7-5-7-5-7-5-10-8-10-8-10-8-12-10-12-10-12-10-8-7-8-7-8-7-|
A|5-5-5-5-5-5--8-8--8-8--8-8-10-10-10-10-10-10-7-7-7-7-7-7-|
D|5-5-5-5-5-5--8-8--8-8--8-8-10-10-10-10-10-10-7-7-7-7-7-7-|

e|------------------------------------------------------------|
B|------------------------------------------------------------|
G|------------------------------------------------------------|
D|7-5-7-5-7-5-10-8-10-8-10-8-12-12-12-12-12-12-8-8-8-8-8-8-7--|
A|5-5-5-5-5-5--8-8--8-8--8-8-10-10-10-10-10-10-7-7-7-7-7-7-7--|
D|5-5-5-5-5-5--8-8--8-8--8-8-10-10-10-10-10-10-7-7-7-7-7-7-5--|



************************************

| h  Hammer-on
| p  Pull-off
| x  Dead note
| /  Slide up
| PM  Palm mute

************************************
Suggest correction
Give kudos to tab author, rate the tab!
1 2 3 4 5
comments
print report bad tab
guest
You may want to rate the tab now too:
select rating
Wanna post a correction for this tab? Suggest correction