Oops, an error
Loading. Please wait.

Romantc Seizures Bass Tab

10 views 1 this week
no commentswrite comment
1 2 3 4 5
3 more votes to show rating
add to favorites
launch autoscroll
font size
0
reset
guitar tuner
Autoscroll
slow
fast
+/-
esc
set tempo
stop
Help us to improve Ultimate-Guitar.com Take our survey!
×
Author
Tuning
D A D G B E
About this tab version
Its an original of our song. Was this info helpful? Yes No
[Intro]

G|---------------------------------------------------------------------------------------------|
D|---------------------------------------------------------------------------------------------|X2
A|---------------------------------------------------------------------------------------------|
D|0--0--0--0--0--0--0--0--8--8--8--8--8--8--8--8--0h5--5--5--5--5--5--5--5--5--5--5--5--5/7---7|
A|---------------------------------------------------------------------------------------------|

G|------------------------------------------------------------------------------------------------|
D|------------------------------------------------------------------------------------------------|
A|------------------------------------10--8--7--8-------------------------------------------------|
D|0--0--0--0--0--0--0--0--8--8--8--8---------------5--5--5--5--7--8--7--5--7--7--7--7--5/7--7-----|
A|------------------------------------------------------------------------------------------------|

G|------------------------------------------------------------------------------------------------|
D|------------------------------------------------------------------------------------------------|
A|------------------------------------------------------------------------------------------------|
D|0--0--0--0--0--0--0--0--8--8--8--8--10--8--7--8--5--5--5--5--7--5--3--5--5--5--5--5--5/7--7--0--|
A|------------------------------------------------------------------------------------------------|

[Verse]

G|-----------------------------------------------------------------------------------------------------------|
D|--------------------------------------------------------------------------------------------------3h5-3p0(X2
A|----------------------------------------3h5-3p0-----------------------------------------------3h5----------|
D|0---0-0-0-0---1---1---1--0-0h1-1p0--3h5---------3h5--0----0-0-0-0---1---1---1--0-0h1-1p0--3h5--------------|
A|-----------------------------------------------------------------------------------------------------------|

G|---------------------------------------------|
D|---------------------------------------------|(X4)
A|-------------------3---------5---------------|
D|0---0-0---0--1---1---1--5--5---5--1---1------|
A|-----------------------------------------3-5-|

[Pre Chorus]
                       [8th notes]
G|-----------------------------------------------------------------|
D|-----------------------------------------------------------------|(X2)
A|-----------------------------------------------------------------|
D|0-0-0-0-0-0-0-0-3-3-3-3-3-3-3-3-2-2-2-2-2-2-2-2-8-8-8-8-5-5-5-5--|
A|-----------------------------------------------------------------|

G|-----------------------------------------------------------------|
D|-----------------------------------------------------------------|(X2)
A|----------------------------------------------------10-------8-7-|
D|0-0-0-0-0-0-0-0-3-3-3-3-3-3-5-7-2-2-2-2-2-5-3-2/8-8----8-5-5-----|
A|-----------------------------------------------------------------|

[Chorus]

G|---------------------------------------------------------------------------|
D|---------------------------------------------------------------------------|[< start repeat here]
A|---------------------------------------------------------------------------|
D|0--0-8-8-0--0-5-5-0--0-7-7-0--0-5-5-0--0-8-8-0--0-5-5-7---7---7---1---1---1|
A|---------------------------------------------------------------------------|


G|---------------------------------------------------------------------------|
D|---------------------------------------------------------------------------|(X2)
A|---------------------------------------------------------------------------|
D|0--0-8-8-0--0-5-5-0--0-7-7-0--0-5-5-0--0-8-8-0--0-5-5-5---5---5---0---0---0|
A|---------------------------------------------------------------------------|

[Verse 2]

G|-----------------------------------------------------------------------------------------------------------|
D|--------------------------------------------------------------------------------------------------3h5-3p0(X2
A|----------------------------------------3h5-3p0-----------------------------------------------3h5----------|
D|0---0-0-0-0---1---1---1--0-0h1-1p0--3h5---------3h5--0----0-0-0-0---1---1---1--0-0h1-1p0--3h5--------------|
A|-----------------------------------------------------------------------------------------------------------|

G|---------------------------------------------|
D|---------------------------------------------|(X4)
A|-------------------3---------5---------------|
D|0---0-0---0--1---1---1--5--5---5--1---1------|
A|-----------------------------------------3-5-|

[Pre Chorus 2]
                       [8th notes]
G|-----------------------------------------------------------------|
D|-----------------------------------------------------------------|(X2)
A|-----------------------------------------------------------------|
D|0-0-0-0-0-0-0-0-3-3-3-3-3-3-3-3-2-2-2-2-2-2-2-2-8-8-8-8-5-5-5-5--|
A|-----------------------------------------------------------------|

G|-----------------------------------------------------------------|
D|-----------------------------------------------------------------|
A|----------------------------------------------------10-------8-7-|
D|0-0-0-0-0-0-0-0-3-3-3-3-3-3-5-7-2-2-2-2-2-5-3-2/8-8----8-5-5-----|
A|-----------------------------------------------------------------|

G|-----------------------------------------------------------------|
D|-----------------------------------------------------------------|
A|----------------------------------------------------------8-7-4--|
D|0-0-0-0-0-0-0-0-3-3-3-3-3-3-5-7-2-2-2-2-2-5-3-2/8-8-8-8-5--------|
A|-----------------------------------------------------------------|

[Chorus 2]

G|---------------------------------------------------------------------------|
D|---------------------------------------------------------------------------|
A|---------------------------------------------------------------------------|
D|0--0-8-8-0--0-5-5-0--0-7-7-0--0-5-5-0--0-8-8-0--0-5-5-7---7---7---1---1---1|
A|---------------------------------------------------------------------------|

G|---------------------------------------------------------------------------|
D|---------------------------------------------------------------------------|
A|---------------------------------------------------------------------------|
D|0--0-8-8-0--0-5-5-0--0-7-7-0--0-5-5-0--0-8-8-0--0-5-5-5---5---5---0---0---0|
A|---------------------------------------------------------------------------|

G|---------------------------------------------------------------------------|
D|---------------------------------------------------------------------------|
A|---------------------------------------------------------------------------|
D|0--0-8-8-0--0-5-5-0--0-7-7-0--0-5-5-0--0-8-8-0--0-5-5-7---7---7---1---1---1|
A|---------------------------------------------------------------------------|

G|-------------------------------------------------------------------------------|
D|-------------------------------------------------------------------------------|
A|-------------------------------------------------------------------------------|
D|0--0-8-8-0--0-5-5-0--0-7-7-0--0-5-5-0--0-8-8-0--0-5-5-5---5---5---1---1---1---0|
A|-------------------------------------------------------------------------------|

[breakdown]
                         [8th notes]
G|-----------------------------------------------------------------|
D|-----------------------------------------------------------------|
A|-----------------------------------------------------------------|
D|0-0-0-8-8-8-8-8-5-5-5-7-7-7-7-7-0-0-0-8-8-8-10-8-5-5-5-7-7-8-7-5-|
A|-----------------------------------------------------------------|

G|-----------------------------------------------------------------|
D|-----------------------------------------------------------------|
A|-----------------------------------------------------------------|
D|0-0-0-8-8-8-8-8-5-5-5-7-7-7-7-7-0-0-0-8-8-8-8-8-5-5-5-7-7-7------|
A|------------------------------------------------------------3--3-|

G|-----------------------------------------------------------------|
D|-----------------------------------------------------------------|
A|-----------------------------------------------------------------|
D|0-0-0-8-8-8-8-8-5-5-5-7-7-7-7-7-0-0-0-8-8-8-10-8-5-5-5-7-7-8-7-5-|
A|-----------------------------------------------------------------|

G|-----------------------------------------------------------------|
D|-----------------------------------------------------------------|
A|-----------------------------------------------------------------|
D|0-0-0-8-8-8-8-8-5-5-5-7-7-7-5-7-0-0-0-8-8-8-10-8-5-5-5-7-7-7-5-7-|
A|-----------------------------------------------------------------|

G|-----------------------------------------------------|
D|-----------------------------------------------------|
A|-----------------------------------------------------|
D|0--0--0--------0--0--0--------0--0--0--------0--0--0-|
A|-----------------------------------------------------|

[solo]

G|-----------------------------------------------------------------------------------------------------|
D|-----------------------------------------------------------------------------------------------------|(X4)
A|-----------------------3h5p3------------------------3h5------------------------3h5p3-----5--------7--|
D|0--0-3--3--3h5--5-1--1-------0--0-3--3--3h5--5-1--1-----0--0-3--3--3h5--5-1--1-------5-5---5--7-7---7|
A|-----------------------------------------------------------------------------------------------------|

G|---------------------------------------------------------------------------|
D|---------------------------------------------------------------------------|
A|---------------------------------------------------------------------------|
D|8--8--8--8--8-7-5--0--0hX-0--0hX--3-5--5--5--5--5--5-7-0--0hX-0--0hX--3-5--|
A|---------------------------------------------------------------------------|

G|---------------------------------------------------------------------------|
D|---------------------------------------------------------------------------|
A|---------------------------------------------------------------------------|
D|8--8--8--8h10-7h8p7-0--0hX-0--0hX--3-5--5--5--5--5--5-7-0--0hX-0--0hX--3-5-|
A|---------------------------------------------------------------------------|

G|-------------------------------------------------------------|
D|-------------------------------------------------------------|
A|-------------------------------------------------------------|
D|0---0---5---5---8---8---5---7---0---0---5---5---8---8---5---7|
A|-------------------------------------------------------------|

G|------------------------------------[Let Ring]-----------------------------------------------------|
D|---------------------------------------------------------------------------------------------------|
A|---7----7-----5-----5-----7-----7-----5-----4-----7-----7-----5-----5-----7-----7-----5------------|
D|0----0-----5-----5-----8-----8-----5-----7-----0-----0-----5-----5-----8-----8-----5-----5-7-8--0--|
A|---------------------------------------------------------------------------------------------------|

[Interlude]

G|-------------------------[Holds]---------------------------------------------------------------------------|
D|-----------------------------------------------------------------------------------------------------------|
A|-----------------------------------------------------------------------------------------------------------|
D|0--------5------3--5--7------8--7--5-------------0------2--3--5------3--5--7----8--7--5--8--5--------------|
A|---------------------------------------3---1--3--------------------------------------------------3---1--3--|

G|-----------------------------------------------------------------------------------------------------------|
D|-----------------------------------------------------------------------------------------------------------|
A|-----------------------------------------------------------------------------------------------------------|
D|0------2--3--5------3--5--7------8--7--10--7--5--------------0------2--3--5------8--7--5--8--7----10--8--7-|
A|---------------------------------------------------3---1--3------------------------------------------------|

G|-------------------------------|
D|-------------------------------|
A|-------------------------------|
D|8--5----------------0---0---0--|
A|--------3---3---3--------------|

[Outro]

G|-------------------------------------------------------------------------------------------------|
D|-------------------------------------------------------------------------------------------------|
A|-------------------------------------------------------------------------------------------------|
D|5---5-5---5--5-5--5-5--7---7-7---7--7-7--7-7--0---0-0--0---0---0-0--0---0---0-0--0---3---3-3--3--|
A|-------------------------------------------------------------------------------------------------|

G|-----------------------------------------------------------------------------------------------|
D|-----------------------------------------------------------------------------------------------|
A|-----------------------------------------------------------------------------------------------|
D|5---5-5---5-5h8--8p7--7---7-7---7-7h10--10p7--0---0-0--0---0---0-0--0---0---0-0--0---3---3-3--3|
A|-----------------------------------------------------------------------------------------------|

G|----------------------------------------------------------------------------------------------|
D|----------------------------------------------------------------------------------------------|
A|----------------------------------------------------------------------------------------------|
D|5---5-5---5-5h7--7h8--7---7-7---7h10-10p7-7h8--0-0h5-0h7--0--0h5-0h8--0--0h5--0h8--3--3h5--5h7|
A|----------------------------------------------------------------------------------------------|

G|----------------------------------------------------------------------------------------------|
D|----------------------------------------------------------------------------------------------|
A|----------------------------------------------------------------------------------------------|
D|5---5-5---5-5h7--7h8--7---7-7---7h10-10p7-7h8--0-0h5-0h7--0--0h5-0h8--0--0h5--0h8--3--3h5--5h7|
A|----------------------------------------------------------------------------------------------|

[Final Pledge]

G|----------------------------------------------------------------------------------------|
D|----------------------------------------------------------------------------------------|
A|-----------------------------------5h7p5------------------------------------------------|
D|0--5--7--8--0--0-0--0--0-0--0--0-0-------7h8--0--0-0-0--0--0-0--0--0-0--0--0-0--5--7--8-|
A|----------------------------------------------------------------------------------------|

G|-----------------------------------------------------------------------------------------|
D|-----------------------------------------------------------------------------------------|
A|----------------------------------5h7p5--------------------------------------------------|
D|0--0-0-0--0--0-0--0--0-0--0--0-0--------7h8--0--0-0-0--0--0-0--0--0-0-5--7--8--7--5--5---|
A|-----------------------------------------------------------------------------------------|

G|----------------------------------------------------------------------------------------|
D|----------------------------------------------------------------------------------------|
A|----------------------------------5h7p5-------------------------------------------------|
D|0--0-0-0--0--0-0--0--0-0--0--0-0--------7h8--0--0-0-0--0--0-0--0--0-0--0--0-0--5--7--8--|
A|----------------------------------------------------------------------------------------|

G|-----------------------------------------------------------------------------------------|
D|-----------------------------------------------------------------------------------------|
A|----------5---5-4---4-1---1--5h7p5-------------------------------------------------------|
D|0--0-0-0----0-----0-----0----------7h8--0--0-0-0--0--0-0--0--0-0--0--0-0--5--7--8--0-----|
A|-----------------------------------------------------------------------------------------|

************************************

| x   Dead note
| g   Grace note
| (n) Ghost note
| h   Hammer-on
| p   Pull-off
| r   Release
| >   Accented note
| t   Tapping
| b   Bend
| br  Bend release
| pb  Pre-bend
| pbr Pre-bend release
| /   Slide up
| \   Slide down
| ~   Vibrato
| s   Slap
| P   Pop
| PM  Palm mute
| TR  Trill
| N   Tremolo

************************************
Suggest correction
Give kudos to tab author, rate the tab!
1 2 3 4 5
comments
print report bad tab
guest
You may want to rate the tab now too:
select rating
Wanna post a correction for this tab? Suggest correction