Oops, an error
Loading. Please wait.

Romantic Seziures Rhythm Guitar Tab

16 views 1 this week
1 commentread comment
1 2 3 4 5
2 more votes to show rating
add to favorites
launch autoscroll
font size
0
reset
how to read this tab
guitar tuner
Autoscroll
slow
fast
+/-
esc
set tempo
stop
Help us to improve Ultimate-Guitar.com Take our survey!
×
Author
Difficulty
Tuning
advanced
D A D G B E
About this tab version
Its an original of our song. Was this info helpful? Yes No
[Intro]

e|---------------------------------------------------------------|
B|---------------------------------------------------------------|
G|---------------------------------------------------------------|
D|0-0-0-0-0-0-0-0---------------0--------------------------5/7-7-|
A|0-0-0-0-0-0-0-0-5-5-5-5-5-5-5-0-8-8-8-8-8-8-8-8-7-7-7-7--5/7-7-|
D|0-0-0-0-0-0-0-0-8-8-8-8-8-8-8-0-5-5-5-5-5-5-5-5-5-5-5-5--5/7-7-|(x3)

e|----------------------------------------------------------------------------------|
B|----------------------------------------------------------------------------------|
G|----------------------------------------------------------------------------------|
D|0-0-0-0-0-0-0-0---------------0--------------------------5/7-7---0----------------|
A|0-0-0-0-0-0-0-0-5-5-5-5-5-5-5-0-8-8-8-8-8-8-8-8-7-7-7-7--5/7-7---0----------------|
D|0-0-0-0-0-0-0-0-8-8-8-8-8-8-8-0-5-5-5-5-5-5-5-5-5-5-5-5--5/7-7---0----------------|


[Verse 1]

e|------------------------------------------------------------------------------------------------------|
B|------------------------------------------------------------------------------------------------------|
G|------------------------------------------------------------------------------------------------------|
D|0--0-0-0-0--1---1---1---0--0-1--1-0----------------0--0-0-0-0--1---1---1---0--0-1--1-0--------3h5p3p0-|
A|0--0-0-0-0--1---1---1---0--0-1--1-0-----3h5-3p0----0--0-0-0-0--1---1---1---0--0-1--1-0-----3h5--------|
D|0--0-0-0-0--1---1---1---0--0-1--1-0--3h5-------3h5-0--0-0-0-0--1---1---1---0--0-1--1-0--3h5-----------|(x2)

e|-----------------------------------------|
B|-----------------------------------------|
G|-----------------------------------------|
D|0--0-0-0-0--1---1---1-5--5-5--5-1---1----|
A|0--0-0-0-0--1---1---1-5--5-5--5-1---1-3/5|
D|0--0-0-0-0--1---1---1-5--5-5--5-1---1----|(x4)


[Pre-Chorus]

e|-----------------------------------------------------------------------------------------------|
B|-----------------------------------------------------------------------------------------------|
G|-----------------------------------------------------------------------------------------------|
D|-----------------------------------------------------------------------------------------------|
A|----5---4p0-----5---4p0-----5---4p0-----5---4p0-----5---4p0-----5---4p0-----5---5p0-----8---7p0|
D|0-0---0-----0-0---0-----3-3---3-----3-3---3-----2-2---2-----2-2---2-----8-8---8-----5-5---5----|(x3)


e|-------------------------------------------------------------------------------------------------|
B|-------------------------------------------------------------------------------------------------|
G|-------------------------------------------------------------------------------------------------|
D|--------------------------------------------------------------------------------------------5h7p5|
A|----5---4p0-----5---4p0-----5---4p0-----5---4p0-----5---4p0-----5---4p0-----5---5p0------5h7-----|
D|0-0---0-----0-0---0-----3-3---3-----3-3---3-----2-2---2-----2-2---2-----8-8---8-----5-7-8--------|


[Chorus]

e|--------------------------------------------------------------------------------------|
B|--------------------------------------------------------------------------------------|<---Start Repeat 
G|--------------------------------------------------------------------------------------|             here
D|0-0--------0-0--------0-0--------0-0--------0-0--------0-0--------7---7---7--3---3---3|
A|0-0-5---5--0-0-8---8--0-0-5---5--0-0-7---7--0-0-5---5--0-0-8---8--5---5---5--1---1---1|
D|0-0-8---8--0-0-5---5--0-0-7---7--0-0-5---5--0-0-8---8--0-0-5---5--5---5---5--1---1---1|

e|--------------------------------------------------------------------------------------|
B|--------------------------------------------------------------------------------------|
G|--------------------------------------------------------------------------------------|
D|0-0--------0-0--------0-0--------0-0--------0-0--------0-0--------7---7---7--2---2---2|
A|0-0-5---5--0-0-8---8--0-0-5---5--0-0-7---7--0-0-5---5--0-0-8---8--5---5---5--0---0---0|
D|0-0-8---8--0-0-5---5--0-0-7---7--0-0-5---5--0-0-8---8--0-0-5---5--5---5---5--0---0---0|(x2)


[Verse 2]

e|------------------------------------------------------------------------------------------------------|
B|------------------------------------------------------------------------------------------------------|
G|------------------------------------------------------------------------------------------------------|
D|0--0-0-0-0--1---1---1---0--0-1--1-0----------------0--0-0-0-0--1---1---1---0--0-1--1-0--------3h5p3p0-|
A|0--0-0-0-0--1---1---1---0--0-1--1-0-----3h5-3p0----0--0-0-0-0--1---1---1---0--0-1--1-0-----3h5--------|
D|0--0-0-0-0--1---1---1---0--0-1--1-0--3h5-------3h5-0--0-0-0-0--1---1---1---0--0-1--1-0--3h5-----------|(x2)

e|-----------------------------------------|
B|-----------------------------------------|
G|-----------------------------------------|
D|0--0-0-0-0--1---1---1-5--5-5--5-1---1----|
A|0--0-0-0-0--1---1---1-5--5-5--5-1---1-3/5|
D|0--0-0-0-0--1---1---1-5--5-5--5-1---1----|(x4)


[Pre-Chorus 2]

e|-----------------------------------------------------------------------------------------------|
B|-----------------------------------------------------------------------------------------------|
G|-----------------------------------------------------------------------------------------------|
D|-----------------------------------------------------------------------------------------------|
A|----5---4p0-----5---4p0-----5---4p0-----5---4p0-----5---4p0-----5---4p0-----5---5p0-----8---7p0|
D|0-0---0-----0-0---0-----3-3---3-----3-3---3-----2-2---2-----2-2---2-----8-8---8-----5-5---5----|(x3)


e|----------------------------------------------------------------------------------------------------|
B|----------------------------------------------------------------------------------------------------|
G|----------------------------------------------------------------------------------------------------|
D|--------------------------------------------------------------------------------------7-7-7-5-5-5---|
A|----5---4p0-----5---4p0-----5---4p0-----5---4p0-----5---4p0-----5---4p0-----5---5p0---------------7-|
D|0-0---0-----0-0---0-----3-3---3-----3-3---3-----2-2---2-----2-2---2-----8-8---8-----5---------------|


[Chorus 2]

e|--------------------------------------------------------------------------------------|
B|--------------------------------------------------------------------------------------|
G|--------------------------------------------------------------------------------------|
D|0-0--------0-0--------0-0--------0-0--------0-0--------0-0--------7---7---7--3---3---3|
A|0-0-5---5--0-0-8---8--0-0-5---5--0-0-7---7--0-0-5---5--0-0-8---8--5---5---5--1---1---1|
D|0-0-8---8--0-0-5---5--0-0-7---7--0-0-5---5--0-0-8---8--0-0-5---5--5---5---5--1---1---1|

e|--------------------------------------------------------------------------------------|
B|--------------------------------------------------------------------------------------|
G|--------------------------------------------------------------------------------------|
D|0-0--------0-0--------0-0--------0-0--------0-0--------0-0--------7---7---7--2---2---2|
A|0-0-5---5--0-0-8---8--0-0-5---5--0-0-7---7--0-0-5---5--0-0-8---8--5---5---5--0---0---0|
D|0-0-8---8--0-0-5---5--0-0-7---7--0-0-5---5--0-0-8---8--0-0-5---5--5---5---5--0---0---0|

e|--------------------------------------------------------------------------------------|
B|--------------------------------------------------------------------------------------|
G|--------------------------------------------------------------------------------------|
D|0-0--------0-0--------0-0--------0-0--------0-0--------0-0--------7---7---7--3---3---3|
A|0-0-5---5--0-0-8---8--0-0-5---5--0-0-7---7--0-0-5---5--0-0-8---8--5---5---5--1---1---1|
D|0-0-8---8--0-0-5---5--0-0-7---7--0-0-5---5--0-0-8---8--0-0-5---5--5---5---5--1---1---1|

e|-------------------------------------------------------------------------------------------------|
B|-------------------------------------------------------------------------------------------------|
G|-------------------------------------------------------------------------------------------------|
D|0-0--------0-0--------0-0--------0-0--------0-0--------0-0--------7---7---7--3---3---3--2--------|
A|0-0-5---5--0-0-8---8--0-0-5---5--0-0-7---7--0-0-5---5--0-0-8---8--5---5---5--1---1---1--0--------|
D|0-0-8---8--0-0-5---5--0-0-7---7--0-0-5---5--0-0-8---8--0-0-5---5--5---5---5--1---1---1--0--------|


[Breakdown]

e|---------------------------------------------------------------------------------|
B|---------------------------------------------------------------------------------|
G|---PM--------------------------------------PM------------------------------------|
D|0--0-0-----PM-----0----PM-----PM-----PM-0--0-0-----PM-----0----PM-PM----PM-PM----|
A|0--0-0--5--5-5--5-0-8--8-8-4--4-4--4--4-0--0-0--5--5-5--5-0-12-12-12-10-10-10-8-7|
D|0--0-0--8--8-8--8-0-5--5-5-7--7-7--7--7-0--0-0--8--8-8--8-0--8--8--8--7--7--7-7-7|(x4)

e|-----------------------------------------------------|
B|-----------------------------------------------------|
G|-----------------------------------------------------|
D|0--0--0--------0--0--0--------0--0--0--------0--0--0-|
A|0--0--0--------0--0--0--------0--0--0--------0--0--0-|
D|0--0--0--------0--0--0--------0--0--0--------0--0--0-|


[Solo With Harmonies]

e|--------------------------------------------------------------------------------------|
B|--------------------------------------------------------------------------------------|<---Start Repeat
G|--------------------------------------------------------------------------------------|             here
D|0--0-3--3--3h5--5-0--0-------0--0-3--3--3h5--5-0--0------0--0-3--3--3h5--5-0--0-------|
A|0--0-3--3--3h5--5-0--0-3h5p3-0--0-3--3--3h5--5-0--0-3/5--0--0-3--3--3h5--5-0--0-3h5p3-|
D|0--0-3--3--3h5--5-0--0-------0--0-3--3--3h5--5-0--0------0--0-3--3--3h5--5-0--0-------|

e|--------------------------|
B|--------------------------|
G|--------------------------|
D|7--7-7--7-7/8-8--8-8--8-8-|
A|5--5-5--5-5/7-7--7-7--7-7-|
D|5--5-5--5-5/7-7--7-7--7-7-|(x4)

e|-------------------------------------------------------------|
B|10----5----6/--8\--3/5--5--10---11h13-11-10--6--8--10--5/6-6-|
G|-------------------------------------------------------------|
D|-------------------------------------------------------------|
A|-------------------------------------------------------------|
D|-------------------------------------------------------------|

e|----------------------------------------------|
B|----------------------------------------------|
G|7---10----9----5---7---10---9---10-10h12\10-10|
D|----------------------------------------------|
A|----------------------------------------------|
D|----------------------------------------------|

e|-----------------------13--------13/15----------------------------13--------13/15---13-12h13p12------------|
B|15--17-15-17h18-17-15------13-11-------13-11-13--13/15--13--13-11----13-11----------------------15---------|
G|----------------------------------------------------------------------------------------------------15-14--|
D|-----------------------------------------------------------------------------------------------------------|
A|-----------------------------------------------------------------------------------------------------------|
D|-----------------------------------------------------------------------------------------------------------|


[Interlude Simpler Mapped out] T = Tapping with index finger

e|---------|    |---------|    |----------|    |----------|    |---------|
B|---------|(x8)|---------|(x8)|----------|(X6)|----------|(x2)|---------|(x8)
G|---------|    |---------|    |----------|    |----------|    |---------|
D|---------|    |---------|    |----------|    |----------|    |---------|
A|---------|    |---------|    |----------|    |----------|    |---------|
D|0h3h7-T12|    |0h5h8-T12|    |0h7h10-T12|    |0h7h10-T14|    |0h5h8-T12|

e|---------|    |---------|    |----------|    |----------|    |----------|    |---------|
B|---------|(x8)|---------|(x8)|----------|(x4)|----------|(x2)|----------|(x2)|---------|(x8)
G|---------|    |---------|    |----------|    |----------|    |----------|    |---------|
D|---------|    |---------|    |----------|    |----------|    |----------|    |---------|
A|---------|    |---------|    |----------|    |----------|    |----------|    |---------|
D|0h3h7-T12|    |0h5h8-T12|    |0h7h10-T12|    |0h7h10-T15|    |0h7h10-T14|    |0h5h8-T12|

e|---------|    |---------|    |----------|    |---------|
B|---------|(x8)|---------|(x8)|----------|(x8)|---------|(x8)
G|---------|    |---------|    |----------|    |---------|
D|---------|    |---------|    |----------|    |---------|
A|---------|    |---------|    |----------|    |---------|
D|0h3h7-T12|    |0h5h8-T12|    |0h7h10-T12|    |0h5h8-T12|


e|---------|    |---------|    |----------|    |----------|    |----------|    |---------|  |---------------|
B|---------|(x8)|---------|(x8)|----------|(x4)|----------|(x2)|----------|(x2)|---------|(x4)-----------|(x4)
G|---------|    |---------|    |----------|    |----------|    |----------|    |---------|  |---------------|
D|---------|    |---------|    |----------|    |----------|    |----------|    |---------|  |---------------|
A|---------|    |---------|    |----------|    |----------|    |----------|    |---------|  |---------------|
D|0h3h7-T12|    |0h5h8-T12|    |0h7h10-T12|    |0h7h10-T15|    |0h7h10-T14|    |0h5h8-T12|  |0h1h5-T12p5p1p0|


e|-----------|
B|-----------|
G|-----------|
D|0---0---0--|
A|0---0---0--|
D|0---0---0--|


[Interlude Fully Mapped out, Skip to Outro if simpler mapped out version is better] 

T = Tapping with index finger

e|---------------------------------------------------------------------------------------------------|
B|---------------------------------------------------------------------------------------------------|
G|---------------------------------------------------------------------------------------------------|
D|---------------------------------------------------------------------------------------------------|
A|---------------------------------------------------------------------------------------------------|
D|0h3h7-T12-0h3h7-T12-0h3h7-T12-0h3h7-T12-0h3h7-T12-0h3h7-T12-0h3h7-T12-0h3h7-T12-0h5h8-T12-0h5h8-T12|

e|-------------------------------------------------------------------------------------------------------|
B|-------------------------------------------------------------------------------------------------------|
G|-------------------------------------------------------------------------------------------------------|
D|-------------------------------------------------------------------------------------------------------|
A|-------------------------------------------------------------------------------------------------------|
D|0h5h8-T12-0h5h8-T12-0h5h8-T12-0h5h8-T12-0h5h8-T12-0h5h8-T12-0h7h10-T12-0h7h10-T12-0h7h10-T12-0h7h10-T12|

e|-------------------------------------------------------------------------------------------------------|
B|-------------------------------------------------------------------------------------------------------|
G|-------------------------------------------------------------------------------------------------------|
D|-------------------------------------------------------------------------------------------------------|
A|-------------------------------------------------------------------------------------------------------|
D|0h7h10-T12-0h7h10-T12-0h7h10-T14-0h7h10-T14-0h5h8-T12-0h5h8-T12-0h5h8-T12-0h5h8-T12-0h5h8-T12-0h5h8-T12|

e|--------------------|
B|--------------------|
G|--------------------|
D|--------------------|
A|--------------------|
D|0h5h8-T12-0h5h8-T12-|

e|---------------------------------------------------------------------------------------------------|
B|---------------------------------------------------------------------------------------------------|
G|---------------------------------------------------------------------------------------------------|
D|---------------------------------------------------------------------------------------------------|
A|---------------------------------------------------------------------------------------------------|
D|0h3h7-T12-0h3h7-T12-0h3h7-T12-0h3h7-T12-0h3h7-T12-0h3h7-T12-0h3h7-T12-0h3h7-T12-0h5h8-T12-0h5h8-T12|

e|-------------------------------------------------------------------------------------------------------|
B|-------------------------------------------------------------------------------------------------------|
G|-------------------------------------------------------------------------------------------------------|
D|-------------------------------------------------------------------------------------------------------|
A|-------------------------------------------------------------------------------------------------------|
D|0h5h8-T12-0h5h8-T12-0h5h8-T12-0h5h8-T12-0h5h8-T12-0h5h8-T12-0h7h10-T12-0h7h10-T12-0h7h10-T12-0h7h10-T12|

e|-------------------------------------------------------------------------------------------------------|
B|-------------------------------------------------------------------------------------------------------|
G|-------------------------------------------------------------------------------------------------------|
D|-------------------------------------------------------------------------------------------------------|
A|-------------------------------------------------------------------------------------------------------|
D|0h7h10-T15-0h7h10-T15-0h7h10-T14-0h7h10-T14-0h5h8-T12-0h5h8-T12-0h5h8-T12-0h5h8-T12-0h5h8-T12-0h5h8-T12|

e|--------------------|
B|--------------------|
G|--------------------|
D|--------------------|
A|--------------------|
D|0h5h8-T12-0h5h8-T12-|

e|---------------------------------------------------------------------------------------------------|
B|---------------------------------------------------------------------------------------------------|
G|---------------------------------------------------------------------------------------------------|
D|---------------------------------------------------------------------------------------------------|
A|---------------------------------------------------------------------------------------------------|
D|0h3h7-T12-0h3h7-T12-0h3h7-T12-0h3h7-T12-0h3h7-T12-0h3h7-T12-0h3h7-T12-0h3h7-T12-0h5h8-T12-0h5h8-T12|

e|-------------------------------------------------------------------------------------------------------|
B|-------------------------------------------------------------------------------------------------------|
G|-------------------------------------------------------------------------------------------------------|
D|-------------------------------------------------------------------------------------------------------|
A|-------------------------------------------------------------------------------------------------------|
D|0h5h8-T12-0h5h8-T12-0h5h8-T12-0h5h8-T12-0h5h8-T12-0h5h8-T12-0h7h10-T12-0h7h10-T12-0h7h10-T12-0h7h10-T12|

e|-------------------------------------------------------------------------------------------------------|
B|-------------------------------------------------------------------------------------------------------|
G|-------------------------------------------------------------------------------------------------------|
D|-------------------------------------------------------------------------------------------------------|
A|-------------------------------------------------------------------------------------------------------|
D|0h7h10-T12-0h7h10-T12-0h7h10-T12-0h7h10-T12-0h5h8-T12-0h5h8-T12-0h5h8-T12-0h5h8-T12-0h5h8-T12-0h5h8-T12|

e|--------------------|
B|--------------------|
G|--------------------|
D|--------------------|
A|--------------------|
D|0h5h8-T12-0h5h8-T12-|

e|---------------------------------------------------------------------------------------------------|
B|---------------------------------------------------------------------------------------------------|
G|---------------------------------------------------------------------------------------------------|
D|---------------------------------------------------------------------------------------------------|
A|---------------------------------------------------------------------------------------------------|
D|0h3h7-T12-0h3h7-T12-0h3h7-T12-0h3h7-T12-0h3h7-T12-0h3h7-T12-0h3h7-T12-0h3h7-T12-0h5h8-T12-0h5h8-T12|

e|-------------------------------------------------------------------------------------------------------|
B|-------------------------------------------------------------------------------------------------------|
G|-------------------------------------------------------------------------------------------------------|
D|-------------------------------------------------------------------------------------------------------|
A|-------------------------------------------------------------------------------------------------------|
D|0h5h8-T12-0h5h8-T12-0h5h8-T12-0h5h8-T12-0h5h8-T12-0h5h8-T12-0h7h10-T12-0h7h10-T12-0h7h10-T12-0h7h10-T12|

e|-------------------------------------------------------------------------------------------------------|
B|-------------------------------------------------------------------------------------------------------|
G|-------------------------------------------------------------------------------------------------------|
D|-------------------------------------------------------------------------------------------------------|
A|-------------------------------------------------------------------------------------------------------|
D|0h7h10-T15-0h7h10-T15-0h7h10-T14-0h7h10-T14-0h5h8-T12-0h5h8-T12-0h5h8-T12-0h5h8-T12-0h5h8-T12-0h5h8-T12|

e|--------------------|
B|--------------------|
G|--------------------|
D|--------------------|
A|--------------------|
D|0h5h8-T12-0h5h8-T12-|

e|-----------|
B|-----------|
G|-----------|
D|0---0---0--|
A|0---0---0--|
D|0---0---0--|


[Outro]

                                      Start Repeat here 
e|-----------------------------------------------------------------------------------------------------------|
B|-----------------------------------------------------------------------------------------------------------|
G|-----------------------------------------------------------------------------------------------------------|
D|-----------------------------------------------------------------------------------------------------------|
A|------5h7p5-----------5h7p5------------7h8p7-------------7h10p7-----------5h7p5----------5h7p5---------5h7p5
D|5h7h8-------8p7p5h7h8-------8p7-7h8h10-------10p8p7h8h10--------10p8-0h5h7-----7p5p0h5h7------7p5p0h5h7----|

e|------------------|
B|------------------|(x4)
G|------------------|
D|------------------|
A|---------5h7p5----|
D|7p5p0h5h7-----7p5-|


[Final Pledge]

e|---------------------------------------------------------------------------------------|
B|---------------------------------------------------------------------------------------|
G|---------------PM------PM------PM---------------PM--------PM------PM------PM-----------|
D|0--5--7--8--0--0-0--0--0-0--0--0-0-----------0--0-0-0--0--0-0--0--0-0--0--0-0--5--7--8-|
A|0--5--7--8--0--0-0--0--0-0--0--0-0-5h7p5-----0--0-0-0--0--0-0--0--0-0--0--0-0--5--7--8-|
D|0--5--7--8--0--0-0--0--0-0--0--0-0-------7h8-0--0-0-0--0--0-0--0--0-0--0--0-0--5--7--8-|


e|---------------------------------------------------------------------------------------|
B|---------------------------------------------------------------------------------------|
G|---PM--------PM------PM------PM---------------PM--------PM------PM---------------------|
D|0--0-0-0--0--0-0--0--0-0--0--0-0-----------0--0-0-0--0--0-0--0--0-0--------------------|
A|0--0-0-0--0--0-0--0--0-0--0--0-0-5h7p5-----0--0-0-0--0--0-0--0--0-0------5h7p5---------|
D|0--0-0-0--0--0-0--0--0-0--0--0-0-------7h8-0--0-0-0--0--0-0--0--0-0-5h7h8-----8p7p5h7h8|


e|-----------------------------------------------------------------------------------|
B|-----------------------------------------------------------------------------------|
G|---PM--------PM------PM------PM---------------PM--------PM------PM------PM---------|
D|0--0-0-0--0--0-0--0--0-0--0--0-0-----------0--0-0-0--0--0-0--0--0-0--0--0-0-5--7--8|
A|0--0-0-0--0--0-0--0--0-0--0--0-0-5h7p5-----0--0-0-0--0--0-0--0--0-0--0--0-0-5--7--8|
D|0--0-0-0--0--0-0--0--0-0--0--0-0-------7h8-0--0-0-0--0--0-0--0--0-0--0--0-0-5--7--8|

e|----------------------------------------------------------------------------------------|
B|----------------------------------------------------------------------------------------|
G|---PM--------PM------PM------PM---------------PM--------PM------PM------PM--------------|
D|0--0-0-0--0--0-0--0--0-0--0--0-0-----------0--0-0-0--0--0-0--0--0-0--0--0-0-5--7--8--0--|
A|0--0-0-0--0--0-0--0--0-0--0--0-0-5h7p5-----0--0-0-0--0--0-0--0--0-0--0--0-0-5--7--8--0--|
D|0--0-0-0--0--0-0--0--0-0--0--0-0-------7h8-0--0-0-0--0--0-0--0--0-0--0--0-0-5--7--8--0--|


************************************
| T   Tap with index finger
| x   Dead note
| g   Grace note
| (n) Ghost note
| h   Hammer-on
| p   Pull-off
| r   Release
| >   Accented note
| t   Tapping
| b   Bend
| br  Bend release
| pb  Pre-bend
| pbr Pre-bend release
| /   Slide up
| \   Slide down
| ~   Vibrato
| s   Slap
| P   Pop
| PM  Palm mute
| TR  Trill
| N   Tremolo

************************************
Suggest correction
Give kudos to tab author, rate the tab!
1 2 3 4 5
comments
print report bad tab
1 comment total.
0 reply
AlexFluffyman 13,366 Sep 17, 2016 08:47 AM

Awesome! Well done! 5 stars.

guest
You may want to rate the tab now too:
select rating
Wanna post a correction for this tab? Suggest correction