Oops, an error
Loading. Please wait.

Secrects Bass Tab

7 views 1 this week
no commentswrite comment
1 2 3 4 5
3 more votes to show rating
add to favorites
launch autoscroll
font size
0
reset
guitar tuner
Autoscroll
slow
fast
+/-
esc
set tempo
stop
Help us to improve Ultimate-Guitar.com Take our survey!
×
Author
Difficulty
Tuning
advanced
D A D G B E
About this tab version
Its an original of our song. Was this info helpful? Yes No
[Intro]

G|-------------------------------------------------------------------------------------------|
D|-------------------------------------------------------------------------------------------|
A|3-3--3--5------------3-3--3/5-5--------------3-3--3/5-5------------3-3--3/5-5--------------|
D|----------5--5--5--5------------5--5--3/5--5------------5--5--5--5------------5--5--3/5--5-|
A|-------------------------------------------------------------------------------------------|

G|------------------------------------------------------------------------------------------------------|
D|-----------------------3-5-----------------------------------------------5-3--------------------------|
A|3-3--3/5-5----------3-5----3-3--3--5--------------3-3--3/5-5---------3-5-----3-3--3/5-5---------------|
D|-----------5--5--3-5-----------------5--5--3/5--5------------5--5-3-5-------------------5--5--5/3--3--|
A|------------------------------------------------------------------------------------------------------|

G|------3h5---------------------|
D|----5-------------------------|(X3)
A|3-3-------5-----5-------6-5---|
D|-------------5----5--7--------|
A|------------------------------|

G|------3h5--------------|
D|----5------------------|
A|3-3-------5-----5------|
D|-------------5----5--7-|
A|-----------------------|

[Verse]

G|------3h5------------------------3h5---------------------------3h5------------------|
D|----5--------------------------5-----------------------------5----------------------|
A|3-3-------5-----5------5---3-3-------5-----5-------------3-3-------5-----5------5---|
D|-------------5----5-5----5--------------5----5-5-7-8-7-5--------------5----5-5----5-|
A|------------------------------------------------------------------------------------|

G|------3h5---------------------------3h5----------------------------3h5---------------------|
D|----5-----------------------------5------------------------------5-------------------------|
A|3-3-------5-----5-------------3-3-------5-----5---------6-5--3-3-------5-----5---------6-5-|
D|-------------5----5-5-3--3--3--------------5----5-5-7-7-------------------5----5-5-7-7-----|
A|-------------------------------------------------------------------------------------------|

G|------3h5----------------------------3h5---------------------|
D|----5------------------------------5-------------------------|
A|3-3-------5-----5---------6-5--3-3-------5-----5-------------|
D|-------------5----5-5-7-7-------------------5----5-5-3--3--3-|
A|-------------------------------------------------------------|

[Chorus]

G|------------------------------------------------------------|
D|----5-------7-----------------------------------------------|
A|3-3---3-3-5-------5---------6-5--3-3--3--5----5---------6-5-|
D|--------------5-5---5-7-7-7----------------5----5--7--7-----|
A|------------------------------------------------------------|

G|--------------------------------|--(Start Repeat with this bar)---|
D|----5-------7-------------------|-----5-------7-------------------|(X4)
A|3-3---3-3-5-------5-------6-8-5-|-3-3---3-3-5-------5---------6-5-|
D|--------------5-5---5-7-7-------|---------------5-5---5-7-7-7-----|
A|--------------------------------|---------------------------------|

G|------------------------|
D|----5-------7-----------|
A|3-3---3-3-5-------5-----|
D|--------------5-5---5-7-|
A|------------------------|


[Verse 2]

G|------3h5------------------------3h5---------------------------3h5------------------|
D|----5--------------------------5---------------------3-------5----------------------|
A|3-3-------5-----5------5---3-3-------5-----5-----3-5---5-3-3-------5-----5------5---|
D|-------------5----5-5----5--------------5----3-5----------------------5----5-5----5-|
A|------------------------------------------------------------------------------------|

G|------3h5----------------------------3h5-----------------------3h5-------------------|
D|----5---------------------3-5------5-------------------------5--------------------3-5|
A|3-3-------5-----5-----3-5------3-3-------5-----5-----5---3-3-------5----5-----3-5----|
D|-------------5----3-5-----------------------5----5-5---5-------------5----3-5--------|
A|-------------------------------------------------------------------------------------|

G|------3h5-----------------------3h5--------------------|
D|----5-------------------------5--------------------3-5-|
A|3-3-------5-----5-----5---3-3-------5----5-----3-5-----|
D|-------------5----5-5---5-------------5----3-5---------|
A|-------------------------------------------------------|

[Chorus 2]

G|-----------------------------------------------------------------|
D|----5-------7------------------------5-------7-------------------|(X2)
A|3-3---3-3-5-------5---------6-5--3-3---3-3-5-------5---------6-8-|
D|--------------5-5---5-7-7-7--------------------5-5---5-7-7-7-----|
A|-----------------------------------------------------------------|

G|------------------------------------------------------------|
D|----5-------7-----------------------------------------------|
A|3-3---3-3-5-------5---------6-5--3-3--3--5----5---------6-5-|
D|--------------5-5---5-7-7-7----------------5----5--7--7-----|
A|------------------------------------------------------------|

G|------------------------------------------------------|
D|----5-------7-----------------------------------------|
A|3-3---3-3-5-------5---------6-5--3-3--3--5----5-------|
D|--------------5-5---5-7-7-7----------------5----5--7--|
A|------------------------------------------------------|

[breakdown]

G|----3--------------------------10---------------8-------------3-----------------------10---------------8---|
D|------1------------1h3/5----------8---------------6-------------1--------1--3--5---------8--------------6--|
A|3-3-----3--3-3--1h3------10-10------10--10-10-8-----8--3--3-3-----3-1-3---------10-10------10--10-10-8---8-|
D|-----------------------------------------------------------------------------------------------------------|
A|-----------------------------------------------------------------------------------------------------------|

G|-------3--------------------3---------10---------------8-------------3-----------------------10------------|
D|---------1------------1h3/5---5----------8---------------6-------------1--------1--3--5---------8----------|
A|3--3-3-----3--3-3--1h3----------10-10------10--10-10-8-----8--3--3-3-----3-1-3---------10-10------10--10-10|
D|-----------------------------------------------------------------------------------------------------------|
A|-----------------------------------------------------------------------------------------------------------|

G|--8-------------3------|
D|----6-------------1----|
A|8-----8--3--3-3-----3--|
D|-----------------------|
A|-----------------------|


[Break down 2]

G|------10--------------------------------8------------------------3-----------------------3-----------------|
D|---------8--------------------------------6------------------------1-----------1h3p1p0-----1----------1h3h5|
A|10-10------10--10-10--10-10--10-10-10-8-----8--8-8--8-8--8-8-8-3-----3--3-3-1h3-------3-3----3-3-3-1h3-----|
D|-----------------------------------------------------------------------------------------------------------|
A|-----------------------------------------------------------------------------------------------------------|

G|------10-----------------------------------8---------------------------3-------------3-------3-------------|
D|---------8-----------------------------------6---------------------------1------1h3/5--5------1-----1h3p1-0|
A|10-10------10--10-10--10-10--10-10-10-8--8-----8--8-8--8-8--8-8-8-3--3-----3-1h3---------3--3--3-1h3-------|
D|-----------------------------------------------------------------------------------------------------------|
A|-----------------------------------------------------------------------------------------------------------|

G|------10-----------------------------------8---------------------------3------------------------3----|
D|---------8-----------------------------------6---------------------------1-----------1------------1--|
A|10-10------10--10-10--10-10--10-10-10-8--8-----8--8-8--8-8--8-8-8-3--3-----3--3-3--3---3-1-3--3-----3|
D|-----------------------------------------------------------------------------------------------------|
A|-----------------------------------------------------------------------------------------------------|

G|----------3----------10------------------------8----------------8-10------3--------------------------3--|
D|1h3/5-5-5---5-----------8--------8h10p8-7--------6-------6h8/10------------1----------1h3p1p0---------1-|
A|--------------10--10------10-8h10---------8--8-----8--6h8------------3--3---3-3-3-1h3---------3-3--3---3|
D|--------------------------------------------------------------------------------------------------------|
A|--------------------------------------------------------------------------------------------------------|

G|--------------------10---------------------------8---------------------------3-------------3-------3-------|
D|-----------------------8----------------8h10-------6------------6h8p6p0--------1------1h3/5--5------1------|
A|-------------10--10------10--10-10--8h10----8--8-----8--8-8-6h8---------3--3-----3-1h3---------3--3--3--3-3|
D|-----------------------------------------------------------------------------------------------------------|
A|3-3--3-3/5--5----------------------------------------------------------------------------------------------|

G|------------------10-------------------------8----------------------3--------------3-------3--------------|
D|---1h3p1-0-----------8----------8-10-12--------6----------------------1-------1h3/5--5------1-----1h3p1-0-|
A|1h3--------10--10------10--8-10---------8--8-----8--6h8-6-4-6--3--3-----3-1h3----------3--3--3-1h3--------|
D|----------------------------------------------------------------------------------------------------------|
A|----------------------------------------------------------------------------------------------------------|

G|-------10---------------------------8-----------------------3-----------------------3--------------------|
D|----------8----------------8h10-------6------------6h8--------1--------1--3--5--------1------------------|
A|10--10------10--10-10--8h10----8--8-----8--8-8-6h8-----3--3-----3--1-3---------3--3-----3----------------|
D|---------------------------------------------------------------------------------------------------------|
A|------------------------------------------------------------------------------------------3-3--3-3/5--5--|

[Bass Outro]

G|-------10-----------------------------------10---------------------------8----------------------|
D|----------8------------------------------------8---------------------------6--------------------|
A|10--10------10--10-10-10-10-10--10--10-9--9------9--9-9-9-9-9--9--9-8--8-----8--8-8-8-8-8--8--8-|
D|------------------------------------------------------------------------------------------------|
A|------------------------------------------------------------------------------------------------|

G|-----8---------------------|
D|-------6-------------------|(X6)
A|7--7-----7--7-7-7-7-7--7--7|
D|---------------------------|
A|---------------------------|

G|-------10----------------------------------10---------------------------8---------------------|
D|----------8-----------------------------------8---------------------------6-------------------|
A|10--10------10--10--10--10--10-10--10-9--9------9--9--9--9--9-9--9-8--8-----8--8--8--8--8-8--8|
D|----------------------------------------------------------------------------------------------|
A|----------------------------------------------------------------------------------------------|

G|-----8---------------------|
D|-------6-------------------|(X2)
A|7--7-----7--7--7--7--7-7--7|
D|---------------------------|
A|---------------------------|

G|-------10----------------------------------10---------------------------8---------------------|
D|----------8-----------------------------------8---------------------------6-------------------|
A|10--10------10--10--10--10--10-10--10-9--9------9--9--9--9--9-9--9-8--8-----8--8--8--8--8-8--8|
D|----------------------------------------------------------------------------------------------|
A|----------------------------------------------------------------------------------------------|

G|-----8-------------------|
D|-------6-----------------|
A|7--7-----7--7--7--7--7-7-|
D|-------------------------|
A|-------------------------|

************************************

| x   Dead note
| g   Grace note
| (n) Ghost note
| h   Hammer-on
| p   Pull-off
| r   Release
| >   Accented note
| t   Tapping
| b   Bend
| br  Bend release
| pb  Pre-bend
| pbr Pre-bend release
| /   Slide up
| \   Slide down
| ~   Vibrato
| s   Slap
| P   Pop
| PM  Palm mute
| TR  Trill
| N   Tremolo

************************************
Suggest correction
Give kudos to tab author, rate the tab!
1 2 3 4 5
comments
print report bad tab
guest
You may want to rate the tab now too:
select rating
Wanna post a correction for this tab? Suggest correction