Oops, an error
Loading. Please wait.

Secrets Tab

4 views 1 this week
no commentswrite comment
1 2 3 4 5
3 more votes to show rating
add to favorites
launch autoscroll
font size
0
reset
how to read this tab
guitar tuner
Autoscroll
slow
fast
+/-
esc
set tempo
stop
Help us to improve Ultimate-Guitar.com Take our survey!
×
Author
Difficulty
Tuning
intermediate
D A D G B E
About this tab version
Its an original of our song. Was this info helpful? Yes No
[Intro]

e|----------------------------------------------------------------------------|
B|4---6--6---8----4---6--6---8----4---6--6---8----4---6--6---8----4---6--6---8|
G|3---5--5---7----3---5--5---7----3---5--5---7----3------5---7----3---5--5---7|
D|----------------------------------------------------------------------------|
A|----5---------------5---------------5---------------5---------------5-------|
D|3------5---7----3------5---7----3------5---7----3------5---7----3------5---7|

[Verse]

e|----------------|---------------------|
B|4---6--6---8----|(X7)-4---6--6---4----|
G|3---5--5---7----|-----3---5--5---3----|
D|----------------|---------------------|
A|----5-----------|---------5-----------|
D|3------5---7----|-----3------5---3----|

[Chorus]

e|--------------------------------------------------------------------------------|
B|4---6--6---8-----4--4-6--6---4----4---6--6---8-----4--4-6--6---4----4---6--6---8|
G|3---5--5---7-----3--3-5--5---3----3---5--5---7-----3--3-5--5---3----3---5--5---7|
D|--------------------------------------------------------------------------------|
A|----5-----------------5----------------5----------------5---------------5-------|
D|3------5---7-----3--3----5---3----3------5---7-----3--3----5---3----3------5---7|


e|---------------------------------------------|
B|4---6--6---8-----4---6--6---4----4---6--6---8|
G|3---5--5---7-----3---5--5---3----3---5--5---7|
D|---------------------------------------------|
A|----5----------------5---------------5-------|
D|3------5---7-----3------5---3----3------5---7|

[Verse 2]

e|----------------|---------------------|
B|4---6--6---8----|(X7)-4---6--6---4----|
G|3---5--5---7----|-----3---5--5---3----|
D|----------------|---------------------|
A|----5-----------|---------5-----------|
D|3------5---7----|-----3------5---3----|

[Chorus 2]

e|------------|---------------------------------------------------|
B|4---6--6---8|(X5)-4--4-6--6---4----4---6--6---4----4--4-6--6---4|
G|3---5--5---7|-----3--3-5--5---3----3---5--5---3----3--3-5--5---3|
D|------------|---------------------------------------------------|
A|----5-------|----------5---------------5----------------5-------|
D|3------5---7|-----3--3----5---3----3------5---3----3--3----5---3|

[Breakdown] 

e|8 Bar Bass|---------------------|-----6----4--------------|
B|---solo---|-6----4--------------|(X2)-6----4----4----3----|(X5)
G|----------|-5----3----3---------|-----5----3----3----3----|
D|----------|---------------------|-------------------------|
A|----------|---------------------|-----5----3----3----3----|
D|----------|-5----3----3---------|-------------------------|

[Bass Outro]

e|--------------------|-----------------------------------------|
B|6----6----4----4----|(X4)-6---6-6--6---6-6--4---4-4--4---4-4--|(X3)
G|5----5----3----3----|-----5---5-5--5---5-5--3---3-3--3---3-3--|
D|--------------------|-----------------------------------------|
A|--------------------|-----------------------------------------|
D|5----4----3----2----|-----5---5-5--4---4-4--3---3-3--2---2-2--|

e|-----------------------------------|
B|6---6-6--6---6-6--4---4-4--4---4---|
G|5---5-5--5---5-5--3---3-3--3---3---|
D|-----------------------------------|
A|-----------------------------------|
D|5---5-5--4---4-4--3---3-3--2---2---| 
Suggest correction
Give kudos to tab author, rate the tab!
1 2 3 4 5
comments
print report bad tab
guest
You may want to rate the tab now too:
select rating
Wanna post a correction for this tab? Suggest correction