Oops, an error
Loading. Please wait.

Suppressed Feelings Bass Tab

13 views 1 this week
2 commentsread comments
1 2 3 4 5
2 more votes to show rating
add to favorites
launch autoscroll
font size
0
reset
guitar tuner
Autoscroll
slow
fast
+/-
esc
set tempo
stop
Help us to improve Ultimate-Guitar.com Take our survey!
×
Author
Difficulty
advanced
About this tab version
Its an original of our song. Was this info helpful? Yes No
[Intro]

G|--------------------------------------------(Start Repeat Here---------------------------------------|
D|---------------------------------------------------------------------8-10/12--10---------10-12h13--12|
A|----5-------5-------6-------6-5-----5-------5-------6-------6-5---10------------------12-------------|
E|3-3----3--3---3-5-5----5--5-----3-3----3--3---3-5-5----5--5-----8----------------0h10----------------|
B|-----------------------------------------------------------------------------------------------------|

G|----------------------------------------10-12|
D|-------8-10/12--10---------10-12h13--12------|
A|----10------------------12-------------------|
E|0h8----------------0h10----------------------|
B|---------------------------------------------|(x2)

G|---------------------------------------------------------------------------------------------|
D|5-----3h5-3--------------5h7-5---------------8h10-8---------------------------------3h5-3----|
A|----5-------5p3--------7-------7p5--------10--------10p8-----8------7------6------5-------5p3|
E|--3-------------0-5--5-------------0-8--8----------------0h6---6--5---5--4---3--3------------|
B|---------------------------------------------------------------------------------------------|

G|-------------------------------------------------------------|
D|---------5h7-5---------------8h10-8--------------------------|
A|-------7-------7p5--------10--------10p8-----8------7------6-|
E|0-5--5-------------0-8--8----------------0h6---6--5---5--4---|
B|-------------------------------------------------------------|


[Verse]

G|--------------------------------------------------------------------------------------|
D|-------------------------------------3/5p0--------------------------------------------|
A|---------------------------------1h3-------------------------------------------10-----|
E|3-------3/5-5----6-5--4----4\1-1-----------3-------3/5-5----6-5--4----4\8-8--8----8\1-|
B|--------------------------------------------------------------------------------------|

G|-----------------------------------------------------------------------------|
D|---------------------------------3/5p0---------------------------------------|
A|-----5--------5--------6-4---1h3------------5--------5--------6-4------10----|
E|3--3---3-5--5---5-6--6-----1-----------3--3---3-5--5---5-6--6-----8--8----8\1|
B|-----------------------------------------------------------------------------|


[Pre-Chorus]

G|---------------------------------------3h5p3----------------------------------------------------|
D|----3------------------------------3-5-------5-3---------------------3-5-3----------------------|
A|--5---5-3--------7-----6-5-3-5---5-----------------7-----6-5-3-5---5-------5-3-----7-----6-5-3-5|
E|3---------3-5--5---5-4---------3-----------------5---5-4---------3-------------5-5---5-4--------|
B|------------------------------------------------------------------------------------------------|

G|--------3h5p3--------------------|
D|----3-5-------5-3----------------|
A|--5-----------------7-----6-5-3-5|
E|3-----------------5---5-4--------|
B|---------------------------------|


[Chorus]

G|-------------------------------------------------------------------------|
D|----3-3h5-3-----------5-5h7p5------------8-8h10p8------------------------|<--- Star repeat here
A|--5---------5-3-----7---------7-5-----10----------10-8-----8-----7-----6-|
E|3---------------0h5---------------0h8------------------0h6---6-5---5-4---|
B|-------------------------------------------------------------------------|

G|-------------------------------------------------------------------------|
D|----3-3h5-3-----------5-5h7p5------------8-8h10p8------------------------|
A|--5---------5-3-----7---------7-5-----10----------10-8-----8-----6-5-3-5-|
E|3---------------0h5---------------0h8------------------0h6---6-5---------|
B|-------------------------------------------------------------------------|(x2)


[Verse 2]

G|--------------------------------------------------------------------------------------|
D|-------------------------------------3/5p0--------------------------------------------|
A|---------------------------------1h3-------------------------------------------10-----|
E|3-------3/5-5----6-5--4----4\1-1-----------3-------3/5-5----6-5--4----4\8-8--8----8\1-|
B|--------------------------------------------------------------------------------------|(x2)

G|-----------------------------------------------------------------------------|
D|---------------------------------3/5p0---------------------------------------|
A|-----5--------5--------6-4---1h3------------5--------5--------6-4------10----|
E|3--3---3-5--5---5-6--6-----1-----------3--3---3-5--5---5-6--6-----8--8----8\1|
B|-----------------------------------------------------------------------------|


G|-----------------------------------------------------------------------------|
D|---------------------------------3/5p0------------------------5--3------3/5p0|
A|-----5--------5--------6-4---1h3------------5--------5---3--3-------1h3------|
E|3--3---3-5--5---5-6--6-----1-----------3--3---3-5--5---5----------1----------|
B|-----------------------------------------------------------------------------|


[Pre-Chorus]


G|-----------------------------------------------------------------------------------|
D|-------------------------------------------3/5p0--------3-5-3----------------------|
A|------------------------------------------------------5-------5-3-----7-----6-5-3-5|
E|3--3--3----5--5--4-------3--3--3----5-5--4----------3-------------5-5---5-4--------|
B|--------------------3--------------------------------------------------------------|

G|--------3h5p3--------------------|
D|----3-5-------5-3----------------|
A|--5-----------------7-----6-5-3-5|
E|3-----------------5---5-4--------|
B|---------------------------------|


[Chorus]

G|-------------------------------------------------------------------------|
D|----3-3h5-3-----------5-5h7p5------------8-8h10p8------------------------|<--- Star repeat here
A|--5---------5-3-----7---------7-5-----10----------10-8-----8-----7-----6-|
E|3---------------0h5---------------0h8------------------0h6---6-5---5-4---|
B|-------------------------------------------------------------------------|

G|-------------------------------------------------------------------------|
D|----3-3h5-3-----------5-5h7p5------------8-8h10p8------------------------|
A|--5---------5-3-----7---------7-5-----10----------10-8-----8-----6-5-3-5-|
E|3---------------0h5---------------0h8------------------0h6---6-5---------|
B|-------------------------------------------------------------------------|(x2)

[Bridge]

G|-------------------------------------------------------------------------------|
D|---------------------------------------------------------------------------5---|
A|------------------------------------12----------5--------5--------6-5-3--3-----|
E|3-------4----1--3----5----4---10-10----10--3--3---3-5--5---5-4--4------------1-|
B|-------------------------------------------------------------------------------|

G|---------------------------------------|
D|---------------------------------------|
A|-----5--------5--------6-5--5-5-5-5-5--|
E|3--3---3-5--5---5-4--4----------------1|
B|---------------------------------------|

G|-----------------------------------|-------------------------------------------|
D|-----------------------------------|(x3)---------------------------------------|
A|-----5--------4--------7--------3--|---------5--------4--------7---------------|
E|3--3---3-2--2---2-5--5---5-1--1---1|----3--3---3-2--2---2-5--5---5-1-1-1-1-1-1-|
B|-----------------------------------|-------------------------------------------|

G|-----------------------------------------------------------------------------------------------------------|
D|----3-----------2-----------5-----------1-----------3-----------2------------5-------5-------5-------5-----|
A|--5---5---5---4---4---4---7---7---7---3---3---3---5---5---5---4---4---4----7---7---7---7---7---7---7---7---|
E|3-------3---2-------2---5-------5---1-------1---3-------3---2-------2----5-------5-------5-------5-------5-|
B|-----------------------------------------------------------------------------------------------------------|

G|----------------------------------------------------------------|
D|----5---------------5-------5-------5-------5-------5-----------|
A|--7---7---7---8---7---7---7---7---7---7---7---7---7---7---7---8-|
E|5-------5---6---5-------5-------5-------5-------5-------5---6---|
B|----------------------------------------------------------------|


[Outro]

G|-------------------------------------------------------------------------|
D|----3-3h5-3-----------5-5h7p5------------8-8h10p8------------------------|
A|--5---------5-3-----7---------7-5-----10----------10-8-----8-----7-----6-|
E|3---------------0h5---------------0h8------------------0h6---6-5---5-4---|
B|-------------------------------------------------------------------------|(x4)

G|-------------------------------------------------------------------------|
D|----3-3h5-3-----------5-5h7p5------------8-8h10p8------------------------|
A|--5---------5-3-----7---------7-5-----10----------10-8-----8-----6-5-3-5-|
E|3---------------0h5---------------0h8------------------0h6---6-5---------|
B|-------------------------------------------------------------------------|(x2)


G|---------------------------------------------------|
D|-----3------------2------------5------------1------|
A|---5----5-------4----4-------7----7-------3----3---|
E|3---------3--2---------2--5---------5--1---------1-|
B|---------------------------------------------------|(x2)



************************************

| h  Hammer-on
| p  Pull-off
| /  Slide up
| \  Slide down

************************************
Suggest correction
Give kudos to tab author, rate the tab!
1 2 3 4 5
comments
print report bad tab
2 comments total.
0 reply
AlexFluffyman 13,475 Sep 21, 2016 10:05 AM

Awesome! 5 stars!

0 reply
Christianozzzz 697 Sep 21, 2016 08:26 PM

@alexFluffyman, thanks for the (X4) edits lol

guest
You may want to rate the tab now too:
select rating
Wanna post a correction for this tab? Suggest correction