Oops, an error
Loading. Please wait.

Suppressed Feelings Tab

7 views 1 this week
no commentswrite comment
1 2 3 4 5
3 more votes to show rating
add to favorites
launch autoscroll
font size
0
reset
how to read this tab
guitar tuner
Autoscroll
slow
fast
+/-
esc
set tempo
stop
Help us to improve Ultimate-Guitar.com Take our survey!
×
Author
Difficulty
advanced
About this tab version
Its an original of our song. Was this info helpful? Yes No
[Intro]

e|----------------------------------------------------------------------------------------------------------|
B|--3---3-3---3-3-------3---3-3---3-3-------3---3-3---3-3-------3---3-3---3-3-------8---8-8---8-8---------10|
G|--3---3-3---3-3-------5---5-5---5-5-------3---3-3---3-3-------5---5-5---5-5-------8---8-8---8-8---------10|
D|--3---3-3---3-3-------4---4-4---4-4-------3---3-3---3-3-------4---4-4---4-4-------8---8-8---8-8---------10|
A|----------------------------------------------------------------------------------------------------------|
E|3---3-----3-----0/5-5---5-----5-----0h3-3---3-----3-----0h5-5---5-----5-----0h8-8---8-----8-----8/10-10---|

e|---------------------------------------------------------------------|
B|---10-10----10h11-10-----8---8-8---8-8---------10----10-10----10--10-|
G|---10-10----10----10-----8---8-8---8-8---------11----11-11----11--11-|
D|---10-10----10----10-----8---8-8---8-8---------10----10-10----10--10-|
A|---------------------------------------------------------------------|
E|10-------10----------0h8---8-----8-----8/10-10----10-------10--------|


e|---------------------------------------------------------------------------------------------------------|
B|------3---3-3-------3-------3---3-3-------3-----------3---3-3-------3-------3---3-3-------3-------8---8-8|
G|------3---3-3-----3---------5---5-5-----5-------------3---3-3-----3---------5---5-5-----5---------8---8-8|
D|------3---3-3---3-----------4---4-4---4---------------3---3-3---3-----------4---4-4---4-----------8---8-8|
A|---------------------------------------------------------------------------------------------------------|
E|0h3-3---3-----3-------0h5-5---5-----5-------0h3-3---3-----3-------0h5-5---5-----5-----------0h8-8---8----|

e|-----------------------------------------------------------------------------------------------|
B|------8---------10----10----11----13----10---8---8-8-------8---------10----10----10----10-10-10|
G|----8-----------10----10----10----10----10---8---8-8-----8-----------11----11----11----11-11-11|
D|--8-------------10----10----10----10----10---8---8-8---8-------------10----10----10----10-10-10|
A|-----------------------------------------------------------------------------------------------|
E|8-------8/10-10----10----10----10----10----8---8-----8-------8/10-10----10----10----10---------|


e|---------------------------------------------------------------------------------------------------------|
B|3--x-x-3--x-3-3--x-x-3--x-x-3--x-x-3--x-3-3--x-x-3--x-x-8--x-x-8--x-8-8--x-x-8--x-x-6--x-6--x-5--x-5--x-5|
G|3--x-x-3--x-3-3--x-x-3--x-x-5--x-x-5--x-5-5--x-x-5--x-x-8--x-x-8--x-8-8--x-x-8--x-x-6--x-6--x-5--x-5--x-5|
D|3--x-x-3--x-3-3--x-x-3--x-x-4--x-x-4--x-4-4--x-x-4--x-x-8--x-x-8--x-8-8--x-x-8--x-x-6--x-6--x-5--x-5--x-5|
A|---------------------------------------------------------------------------------------------------------|
E|3--x-x-3--x-3-3--x-x-3--x-x-5--x-x-5--x-5-5--x-x-5--x-x-8--x-x-8--x-8-8--x-x-8--x-x-6--x-6--x-5--x-5--x-5|

e|---|
B|x-x|
G|x-x|
D|x-x|
A|---|
E|x-x|

e|-----------------------------------------------------------------------------------------------|
B|3--x-x-3--x-3-3--x-x-3--x-x-3--x-x-3--x-3-3--x-x-3--x-x-8--x-x-8--x-8-8--x-x-8--x-x-6--x-6--x-5|
G|3--x-x-3--x-3-3--x-x-3--x-x-5--x-x-5--x-5-5--x-x-5--x-x-8--x-x-8--x-8-8--x-x-8--x-x-6--x-6--x-5|
D|3--x-x-3--x-3-3--x-x-3--x-x-4--x-x-4--x-4-4--x-x-4--x-x-8--x-x-8--x-8-8--x-x-8--x-x-6--x-6--x-5|
A|-----------------------------------------------------------------------------------------------|
E|3--x-x-3--x-3-3--x-x-3--x-x-5--x-x-5--x-5-5--x-x-5--x-x-8--x-x-8--x-8-8--x-x-8--x-x-6--x-6--x-5|

[Verse]

e|-----------------------------------------------------------------------------------------|
B|----3----------3----------4----------1----------3----------3----------4----------8------1|(X2)
G|----3----------5----------4----------1----------3----------5----------4----------8------1|
D|-3--3--3-3--4--4--4-4--4--4--4-4--1--1--1-1--3--3--3-3--4--4--4-4--4--4--4-4--8--8--8---1|
A|-----------------------------------------------------------------------------------------|
E|3-3-----3--5-5-----5--4-4-----4--1-1-----1--3-3-----3--5-5-----5--4-4-----4--8-8------1--|

[Pre Chorus]

e|------------------------------------------------------------------------------------------|
B|3--3--3----3--3--4----3--3--3----3-3---4----3--3--3----3--3--4----3--3--3----3-3---4--4-4-|
G|3--3--3----5--5--4----3--3--3----5-5---4----3--3--3----5--5--4----3--3--3----5-5---4--4-4-|
D|3--3--3----4--4--4----3--3--3----4-4---4----3--3--3----4--4--4----3--3--3----4-4---4--4-4-|
A|------------------------------------------------------------------------------------------|
E|3--3--3----5--5--4----3--3--3----5-5---4----3--3--3----5--5--4----3--3--3----5-5---4--4-4-|


[Chorus]

e|---------------------------------------(Start Repeat Here)-----------------------------------------------|
B|3--x-x-3--x-3-3--x-x-3--x-x-3--x-x-3--x-3-3--x-x-3--x-x-8--x-x-8--x-8-8--x-x-8--x-x-6--x-6--x-5--x-5--x-5|
G|3--x-x-3--x-3-3--x-x-3--x-x-5--x-x-5--x-5-5--x-x-5--x-x-8--x-x-8--x-8-8--x-x-8--x-x-6--x-6--x-5--x-5--x-5|
D|3--x-x-3--x-3-3--x-x-3--x-x-4--x-x-4--x-4-4--x-x-4--x-x-8--x-x-8--x-8-8--x-x-8--x-x-6--x-6--x-5--x-5--x-5|
A|---------------------------------------------------------------------------------------------------------|
E|3--x-x-3--x-3-3--x-x-3--x-x-5--x-x-5--x-5-5--x-x-5--x-x-8--x-x-8--x-8-8--x-x-8--x-x-6--x-6--x-5--x-5--x-5|

e|---|
B|x-x|(X2)
G|x-x|
D|x-x|
A|---|
E|x-x|

e|----------------------------------------------------|
B|------4h6-4--1-1--3--3------------------------------|(X2)
G|----3------------------3--3h5/7--7h8-7-5-5h7--7--3--|
D|--3-------------------------------------------------|
A|----------------------------------------------------|
E|3---------------------------------------------------|

[Verse 2]

e|-----------------------------------------------------------------------------------------|
B|----3----------3----------4----------1----------3----------3----------4----------8------1|(X2)
G|----3----------5----------4----------1----------3----------5----------4----------8------1|
D|-3--3--3-3--4--4--4-4--4--4--4-4--1--1--1-1--3--3--3-3--4--4--4-4--4--4--4-4--8--8--8---1|
A|-----------------------------------------------------------------------------------------|
E|3-3-----3--5-5-----5--4-4-----4--1-1-----1--3-3-----3--5-5-----5--4-4-----4--8-8------1--|

e|---------------------------------------------------------------------------------|
B|----3--3------3--3------4--4------1--1-----3--3------3--3------4--4------8------1|
G|----3--3------5--5------4--4------1--1-----3--3------5--5------4--4------8------1|
D|-3--3--3---4--4--4---4--4--4---1--1--1--3--3--3---4--4--4---4--4--4---8--8--8---1|
A|---------------------------------------------------------------------------------|
E|3-3-------5-5-------4-4-------1-1------3-3-------5-5-------4-4-------8-8------1--|

e|----------------------------------------------------------------------------|
B|----3--3------3--3------4--4------1--1-----3--3------3--3-------8--8-----1--|
G|----3--3------5--5------4--4------1--1-----3--3------5--5-------8--8-----1--|
D|-3--3--3---4--4--4---4--4--4---1--1--1--3--3--3---4--4--4----8--8--8--1--1--|
A|----------------------------------------------------------------------------|
E|3-3-------5-5-------4-4-------1-1------3-3-------5-5--------8-8------1-1----|

[Pre Chorus 2]

e|--------------------------------------------------------------------------------------|
B|3--3--3----3--3--4----3--3--3----3-3---4----3--3--3----3--3--4----3--3--3----3-3---4--|
G|3--3--3----5--5--4----3--3--3----5-5---4----3--3--3----5--5--4----3--3--3----5-5---4--|
D|3--3--3----4--4--4----3--3--3----4-4---4----3--3--3----4--4--4----3--3--3----4-4---4--|
A|--------------------------------------------------------------------------------------|
E|3--3--3----5--5--4----3--3--3----5-5---4----3--3--3----5--5--4----3--3--3----5-5---4--|

[Chorus 2]

e|---------------------------------------(Start Repeat Here)-----------------------------------------------|
B|3--x-x-3--x-3-3--x-x-3--x-x-3--x-x-3--x-3-3--x-x-3--x-x-8--x-x-8--x-8-8--x-x-8--x-x-6--x-6--x-5--x-5--x-5|
G|3--x-x-3--x-3-3--x-x-3--x-x-5--x-x-5--x-5-5--x-x-5--x-x-8--x-x-8--x-8-8--x-x-8--x-x-6--x-6--x-5--x-5--x-5|
D|3--x-x-3--x-3-3--x-x-3--x-x-4--x-x-4--x-4-4--x-x-4--x-x-8--x-x-8--x-8-8--x-x-8--x-x-6--x-6--x-5--x-5--x-5|
A|---------------------------------------------------------------------------------------------------------|
E|3--x-x-3--x-3-3--x-x-3--x-x-5--x-x-5--x-5-5--x-x-5--x-x-8--x-x-8--x-8-8--x-x-8--x-x-6--x-6--x-5--x-5--x-5|

e|---|
B|x-x|(X2)
G|x-x|
D|x-x|
A|---|
E|x-x|

e|----------------------------------------------------|
B|------4h6-4--1-1--3--3------------------------------|(X2)
G|----3------------------3--3h5/7--7h8-7-5-5h7--7--3--|
D|--3-------------------------------------------------|
A|----------------------------------------------------|
E|3---------------------------------------------------|

[Breakdown]

e|--------------------------------------------------------------------------------------------|
B|--3----3----4----8----3----3----4-----10----3----3----4----8----3----3----4--10-10-10-10-10-|
G|--3----5----4----8----3----5----4-----10----3----5----4----8----3----5----4--10-10-10-10-10-|
D|--3----4----4----8----3----4----4-----10----3----4----4----8----3----4----4--10-10-10-10-10-|
A|--------------------------------------------------------------------------------------------|
E|3----5----4----8----3----5----4----10-----3----5----4----8----3----5----4----10-10-10-10-10-|

e|------------------------------------------------|
B|------3-----------2-----------4-----------1-----|(X3)
G|----3---3-------2---2-------4---4-------1---1---|
D|--3-------3---2-------2---4-------4---1-------1-|
A|------------------------------------------------|
E|3-----------2-----------4-----------1-----------|

e|----------------------------------------------|
B|------3-----------2-----------4-----1-1-1-1-1-|
G|----3---3-------2---2-------4---4---1-1-1-1-1-|
D|--3-------3---2-------2---4-------4-1-1-1-1-1-|
A|----------------------------------------------|
E|3-----------2-----------4-----------1-1-1-1-1-|


e|-----------------------------------------------------------------------------------------------------------|
B|3--x-x-3-3--x-x-x-2--x-x-2-2--x-x-x-5--x-x-5-5--x-x-x-1--x-x-1-1--x-x-x-3--x-x-3-3--x-x-x-2--x-x-2-2--x-x-x|
G|3--x-x-3-3--x-x-x-2--x-x-2-2--x-x-x-5--x-x-5-5--x-x-x-1--x-x-1-1--x-x-x-3--x-x-3-3--x-x-x-2--x-x-2-2--x-x-x|
D|3--x-x-3-3--x-x-x-2--x-x-2-2--x-x-x-5--x-x-5-5--x-x-x-1--x-x-1-1--x-x-x-3--x-x-3-3--x-x-x-2--x-x-2-2--x-x-x|
A|-----------------------------------------------------------------------------------------------------------|
E|3--x-x-3-3--x-x-x-2--x-x-2-2--x-x-x-5--x-x-5-5--x-x-x-1--x-x-1-1--x-x-x-3--x-x-3-3--x-x-x-2--x-x-2-2--x-x-x|

e|------------------------------------------------------------------------------------|
B|5--x-x-x-x-5--x-x-x-x-5--x-x-x-x-5--x-x-x-x-5-x-x-x-x-5-x-x-x-x-5--x-x-6--x-x-6--x-x|(X2)
G|5--x-x-x-x-5--x-x-x-x-5--x-x-x-x-5--x-x-x-x-5-x-x-x-x-5-x-x-x-x-5--x-x-6--x-x-6--x-x|
D|5--x-x-x-x-5--x-x-x-x-5--x-x-x-x-5--x-x-x-x-5-x-x-x-x-5-x-x-x-x-5--x-x-6--x-x-6--x-x|
A|------------------------------------------------------------------------------------|
E|5--x-x-x-x-5--x-x-x-x-5--x-x-x-x-5--x-x-x-x-5-x-x-x-x-5-x-x-x-x-5--x-x-6--x-x-6--x-x|

[Outro solo]

e|---------------------------------------------------------------------------------------------------------|
B|3--x-x-3--x-3-3--x-x-3--x-x-3--x-x-3--x-3-3--x-x-3--x-x-8--x-x-8--x-8-8--x-x-8--x-x-6--x-6--x-5--x-5--x-5|
G|3--x-x-3--x-3-3--x-x-3--x-x-5--x-x-5--x-5-5--x-x-5--x-x-8--x-x-8--x-8-8--x-x-8--x-x-6--x-6--x-5--x-5--x-5|
D|3--x-x-3--x-3-3--x-x-3--x-x-4--x-x-4--x-4-4--x-x-4--x-x-8--x-x-8--x-8-8--x-x-8--x-x-6--x-6--x-5--x-5--x-5|
A|---------------------------------------------------------------------------------------------------------|
E|3--x-x-3--x-3-3--x-x-3--x-x-5--x-x-5--x-5-5--x-x-5--x-x-8--x-x-8--x-8-8--x-x-8--x-x-6--x-6--x-5--x-5--x-5|

e|---|
B|x-x|
G|x-x|
D|x-x|
A|---|
E|x-x|

e|------------------------------------------------------------------------------------------------|
B|3--x-x-3--x-3--1-1--1--3-4-6--3-3-x-3-x-3-x-1----3--x-x-3--x-3--1-1--1--3-4-6--8-8-x-8-x-10-x-11|
G|----------------------------------------------0-------------------------------------------------|
D|------------------------------------------------------------------------------------------------|
A|------------------------------------------------------------------------------------------------|
E|------------------------------------------------------------------------------------------------|

e|---------------------------------------------------------------------------------------------------------|
B|3--x-x-3--x-3-3--x-x-3--x-x-3--x-x-3--x-3-3--x-x-3--x-x-8--x-x-8--x-8-8--x-x-8--x-x-6--x-6--x-5--x-5--x-5|
G|3--x-x-3--x-3-3--x-x-3--x-x-5--x-x-5--x-5-5--x-x-5--x-x-8--x-x-8--x-8-8--x-x-8--x-x-6--x-6--x-5--x-5--x-5|
D|3--x-x-3--x-3-3--x-x-3--x-x-4--x-x-4--x-4-4--x-x-4--x-x-8--x-x-8--x-8-8--x-x-8--x-x-6--x-6--x-5--x-5--x-5|
A|---------------------------------------------------------------------------------------------------------|
E|3--x-x-3--x-3-3--x-x-3--x-x-5--x-x-5--x-5-5--x-x-5--x-x-8--x-x-8--x-8-8--x-x-8--x-x-6--x-6--x-5--x-5--x-5|


e|----6-8-8h10--10-10--10-6-6h8--8-8--5-6h8-6-3-1--------6-8-8h10--10-10--6-8-x-8----6-8-8h10-10-10/11--10-10|
B|6h8---------------------------------------------3--6h8--------------------------6h8------------------------|
G|-----------------------------------------------------------------------------------------------------------|
D|-----------------------------------------------------------------------------------------------------------|
A|-----------------------------------------------------------------------------------------------------------|
E|-----------------------------------------------------------------------------------------------------------|

e|----------------------------------------(Start Repeat Here)----------------------------------------------|
B|3--x-x-3--x-3-3--x-x-3--x-x-3--x-x-3--x-3-3--x-x-3--x-x-8--x-x-8--x-8-8--x-x-8--x-x-6--x-6--x-5--x-5--x-5|
G|3--x-x-3--x-3-3--x-x-3--x-x-5--x-x-5--x-5-5--x-x-5--x-x-8--x-x-8--x-8-8--x-x-8--x-x-6--x-6--x-5--x-5--x-5|
D|3--x-x-3--x-3-3--x-x-3--x-x-4--x-x-4--x-4-4--x-x-4--x-x-8--x-x-8--x-8-8--x-x-8--x-x-6--x-6--x-5--x-5--x-5|
A|---------------------------------------------------------------------------------------------------------|
E|3--x-x-3--x-3-3--x-x-3--x-x-5--x-x-5--x-5-5--x-x-5--x-x-8--x-x-8--x-8-8--x-x-8--x-x-6--x-6--x-5--x-5--x-5|

e|---|
B|x-x|(X2)
G|x-x|
D|x-x|
A|---|
E|x-x|

e|-----------------------------------------------------------------------------------------------------------|
B|3--x-x-3--x-3-3--x-x-3--x-x-2--x-x-2--x-2-2--x-x-2--x-x-5--x-x-5--x-5-5--x-x-5--x-x--1--x-x-1--x-1-1--x-x-1|
G|3--x-x-3--x-3-3--x-x-3--x-x-2--x-x-2--x-2-2--x-x-2--x-x-5--x-x-5--x-5-5--x-x-5--x-x--1--x-x-1--x-1-1--x-x-1|
D|3--x-x-3--x-3-3--x-x-3--x-x-2--x-x-2--x-2-2--x-x-2--x-x-5--x-x-5--x-5-5--x-x-5--x-x--1--x-x-1--x-1-1--x-x-1|
A|-----------------------------------------------------------------------------------------------------------|
E|3--x-x-3--x-3-3--x-x-3--x-x-2--x-x-2--x-2-2--x-x-2--x-x-5--x-x-5--x-5-5--x-x-5--x-x--1--x-x-1--x-1-1--x-x-1|

e|-----------------------------------------------------------------------------------------------------------|
B|x-x-3--x-x-3--x-3-3--x-x-3--x-x-2--x-x-2--x-2-2--x-x-2--x-x-5--x-x-5--x-5-5--x-x-5--x-x-1--x-1--x-1--x-1--x|
G|x-x-3--x-x-3--x-3-3--x-x-3--x-x-2--x-x-2--x-2-2--x-x-2--x-x-5--x-x-5--x-5-5--x-x-5--x-x-1--x-1--x-1--x-1--x|
D|x-x-3--x-x-3--x-3-3--x-x-3--x-x-2--x-x-2--x-2-2--x-x-2--x-x-5--x-x-5--x-5-5--x-x-5--x-x-1--x-1--x-1--x-1--x|
A|-----------------------------------------------------------------------------------------------------------|
E|x-x-3--x-x-3--x-3-3--x-x-3--x-x-2--x-x-2--x-2-2--x-x-2--x-x-5--x-x-5--x-5-5--x-x-5--x-x-1--x-1--x-1--x-1--x|

e|-----|
B|1----|
G|1----|
D|1----|
A|-----|
E|1----|


************************************

| x   Dead note
| g   Grace note
| (n) Ghost note
| h   Hammer-on
| p   Pull-off
| r   Release
| >   Accented note
| t   Tapping
| b   Bend
| br  Bend release
| pb  Pre-bend
| pbr Pre-bend release
| /   Slide up
| \   Slide down
| ~   Vibrato
| s   Slap
| P   Pop
| PM  Palm mute
| TR  Trill
| N   Tremolo

************************************
Suggest correction
Give kudos to tab author, rate the tab!
1 2 3 4 5
comments
print report bad tab
guest
You may want to rate the tab now too:
select rating
Wanna post a correction for this tab? Suggest correction