Oops, an error
Loading. Please wait.

The Fear Of Dying Alone Bass Tab

7 views 1 this week
no commentswrite comment
1 2 3 4 5
3 more votes to show rating
add to favorites
launch autoscroll
font size
0
reset
guitar tuner
Autoscroll
slow
fast
+/-
esc
set tempo
stop
Help us to improve Ultimate-Guitar.com Take our survey!
×
Author
Difficulty
Tuning
advanced
C G C F A D
About this tab version
Its an original of our song. Was this info helpful? Yes No
[Verse A]

F|-----------------------------------------------------------------------------------------------------------|
C|-------------------------------------------------------------------------------------------------------|(X2)
G|------1---------------------------1--------------------------1---------------------------------------------|
C|0-1-3---3-1--0-0--0-0--0--0-0-1-3---3-1-0-0--0-0-3h5p3-0-1-3---3-1-0-0--0-0--0--0h5--5-5-7h8-7-7--7-7-8h10-7

F|------------------------------------|
C|------------------------------------|
G|------------------------------------|
C|0--0-0-0-0-0-0-0-0-0-0-0-0-0-0-0-0--|


[Chorus A]

F|-----------------------------------------------------------------------------------------------------|
C|-----------------------------------------------------------------------------------------------------|
G|---------------8----------7----------------------8-----------8-9--9----------------8----------7------|
C|5----5----8--8---8-8-7--7---7--7--5----5----8--8---8--8-7--7--------5----5----8--8---8-8-7--7---7--7-|

F|--------------------------------|
C|--------------------------------|
G|---------------8-9-8------7-8-7-|
C|5----5----8--8-------7--7-------|

[Verse A 2]

F|-----------------------------------------------------------------------------------------------------------|
C|-------------------------------------------------------------------------------------------------------|(X4)
G|------1---------------------------1--------------------------1---------------------------------------------|
C|0-1-3---3-1--0-0--0-0--0--0-0-1-3---3-1-0-0--0-0-3h5p3-0-1-3---3-1-0-0--0-0--0--0h5--5-5-7h8-7-7--7-7-8h10-7

F|------------------------------------|
C|------------------------------------|
G|------------------------------------|
C|0--0-0-0-0-0-0-0-0-0-0-0-0-0-0-0-0--|

[Chorus B]

F|------------------------------------------------------------------------|
C|------------------------------------------------------------------------|(X2)
G|---------------------5----------5------------------------5----------5---|
C|5----7h8--7--0--0--0----0--0--0---0-5----8h10-7--0--0--0----0--0--0---0-|

F|-----------------------------------------------------------------------------------|
C|-----------------------------------------------------------------------------------|(X2)
G|--5-------8---7------------5---------5-----5-------10---7------------5---------5---|
C|5---5-5-8---7---7--0--0--0---0--0--0---0-5---5-5-10---7---7--0--0--0---0--0--0---0-|


[Verse B]

F|----------------------------------------------------------------------------------|
C|----------------------------------------------------------------------------------|
G|Pm---Pm---Pm---Pm---Pm---Pm--------------Pm---Pm---Pm---Pm---Pm---Pm--------------|
C|5----5----8----7----5----5----8----3--3--5----5----8----7----5----5----8----7--3--|

F|--------------------------------------------------------------------|
C|--------------------------------------------------------------------|(X2)
G|--------------------------------------------------------------------|
C|5--5-5-5-5-5-5-5-0--0-0-0-8-8-8-8p5--5-5-5-5-5-5-5-0--0-0-0-7-7-3-3-|

[Chorus C]

F|----------------------------------------------------------------------------------------------------------|
C|----------------------------------------------------------------------------------------------------------|
G|----------------------------------------------------------------------------------------------------------|
C|0--0--0-0----0--0--0-0-1--1/3-0--0--0-0----5----7----0--0--0-0----0--0--0-0-1--1/3-0--0--0-0----5----7----|

F|--------------------------------------(Start-Repeat-Here)--------------------------------------------|
C|--------------------------------------------------------------------------------------(16th notes)---|
G|---------------5h7p5---------------------5h7p5-7h8p7-----------------5h7p5------------8-10-10-10-10--|
C|0--0--0-0-5h7h8-----8p7p5-0--0--0-0-5h7h8------------0--0--0-0--5h7h8-----8p7p5--5--5----------------|

F|-------------------|
C|------(16th notes)-|(X2)
G|-----10-12-12-12-12|
C|7--7---------------|

[Break down]

F|--------------------------------------------|
C|--------------------------------------------|(X2)
G|-------------10/12-8------7/8-5-----9/10-7--|
C|0--------8------------5----------7----------|

F|-----------------------------------------------------------------------------|
C|-----------------------------------------------------------------------------|
G|---------------------7/8-5---9/10-7-------------10/12-8------7/8-5-----9/10-7|
C|0--------10---8-7-5--------7--------0--------8-----------5----------7--------|

F|------------------------------------------------------------------------------------------------|
C|------------------------------------------------------------------------------------------------|
G|----------------------------------8--------10-------------5--------7-------------7--------8-----|
C|0--0--0-0--0-0--0-0--0-0--8--8--8---8-8--8----8-8-5--5--5---5-5--5---5-5-7--7--7---7-7--7---1-1-|

F|-------------------------------------------------------------------------------------------------|
C|-------------------------------------------------------------------------------------------------|
G|----------------------------------8--------10-------------5--------7-------------7---------------|
C|0--0--0-0--0-0--0-0--0-0--8--8--8---8-8--8----8-8-5--5--5---5-5--5---5-5-7--7--7---7-7--7-1--1--1|

[Outro Solo]

F|-----------------------------------------------------------------------------------------------------------|
C|-------------------------------------------------------------------------------------------------------|(X4)
G|------1---------------------------1--------------------------1---------------------------------------------|
C|0-1-3---3-1--0-0--0-0--0--0-0-1-3---3-1-0-0--0-0-3h5p3-0-1-3---3-1-0-0--0-0--0--0h5--5-5-7h8-7-7--7-7-8h10-7

F|-------------------------------------------------------------------------------------------------|
C|-------------------------------------------------------------------------------------------------|
G|---------------8-10------7-8--------------------8-----------7----------------------8-10------7-8-|
C|5----5----8--8------7--7------7--5----5----8--8---8--8-7--7---7--7--5----5----8--8------7--7-----|

F|--------------------------------|
C|--------------------------------|
G|---------------8-----------7----|
C|5----5----8--8---8--8-7--7---7--|

F|--------------------------------------------------------------------------------|
C|--------------------------------------------------------------------------------|
G|-------------10/12-8------7/8-5----------------------------------7/8-5---9/10-7-|
C|0--------8------------5----------7---7/8-5--0--------10---8-7-5--------7--------|

F|-----------------------------------------------------------------|
C|-----------------------------------------------------------------|
G|-------------------------8---10-----------5-----5-------7---8---7|
C|0--0-0-0-0-0-0-0-8-8-8-8---8----8-5-5-5-5---5-5---7-7-7---7---7--|

F|------------------------------------------------------------------|
C|------------------------------------------------------------------|(X3)
G|-------------3-5-------8---10---8-------5---7---8-------7---8---7-|
C|0--0-0-0-3-3-----8-8-8---8----8---5-5-5---5---5---7-7-7---7---7---|

F|-----------------------------|
C|-----------------------------|
G|-----------------------------|
C|0--0--0--0-0--0--0--0--------|

************************************

| x   Dead note
| g   Grace note
| (n) Ghost note
| h   Hammer-on
| p   Pull-off
| r   Release
| >   Accented note
| t   Tapping
| b   Bend
| br  Bend release
| pb  Pre-bend
| pbr Pre-bend release
| /   Slide up
| \   Slide down
| ~   Vibrato
| s   Slap
| P   Pop
| PM  Palm mute
| TR  Trill
| N   Tremolo

************************************
Suggest correction
Give kudos to tab author, rate the tab!
1 2 3 4 5
comments
print report bad tab
guest
You may want to rate the tab now too:
select rating
Wanna post a correction for this tab? Suggest correction