Oops, an error
Loading. Please wait.

The Fear Of Dying Alone tab

19 views 1 this week
no commentswrite comment
1 2 3 4 5
3 more votes to show rating
add to favorites
×
Save as Personal and add changes to this tab that will be seen only by you. Learn more ›
×
You can save this tab as Personal to edit and correct it or add notes. All changes will be seen only by you. Learn more »
launch autoscroll
font size
0
reset
how to read this tab
guitar tuner
edit
Autoscroll
slow
fast
+/-
esc
set tempo
stop
About this tab version
Its an original of our song. Was this info helpful? Yes No
[Verse A]
D|------------------------------------------------------------------------------------------------------|
A|------------------------------------------------------------------------------------------------------|
F|-----------------PM-----------------------PM----------------------------PM----------------------------|
C|------------0-0--0-0--0--0-0-----------0-0--0-0--5-7-5-------------0-0--0-0--0--0-5--5-5--7/8-7-7--7-7|
G|------1-----0-0--0-0--0--0-0-----1-----0-0--0-0--5-7-5-------1-----0-0--0-0--0--0-5--5-5--7/8-7-7--7-7|
C|0-1-3---3-1-0-0--0-0--0--0-0-1-3---3-1-0-0--0-0--5-7-5-0-1-3---3-1-0-0--0-0--0--0-5--5-5--7/8-7-7--7-7|

D|------|
A|------|(X2)
F|------|
C|8/10-7|
G|8/10-7|
C|8/10-7|

D|-----------------------------------|
A|-----------------------------------|
F|-----------------------------------|
C|0--0-0-0-0-0-0-0-0-0-0-0-0-0-0-0-0-|
G|0--0-0-0-0-0-0-0-0-0-0-0-0-0-0-0-0-|
C|0--0-0-0-0-0-0-0-0-0-0-0-0-0-0-0-0-|

[Chorus A]
D|-------------------------------------------------------------------|
A|-------------------------------------------------------------------|(X3)
F|-------------------------------------------------------------------|
C|5---(16th notes)--5-(16th notes)-----------------------------------|
G|5--10/12-12-12-12-5--10\8-8-8-8---------8-------8-------7-8-9-8-7--|
C|5-----------------5--------------8--8-8---8-8-8---7-7-7------------|

D|--------------------------------------------------------------------|
A|--------------------------------------------------------------------|
F|--------------------------------------------------------------------|
C|5----(16th notes)-5-(16th notes)------------------------------------|
G|5--10/12-12-12-12-5--10\8-8-8-8---------8-------8-------7-8-9-8-7---|
C|5-----------------5--------------8--8-8---8-8-8---7-7-7-----------10|

[Verse A 2]
D|------------------------------------------------------------------------------------------------------|
A|------------------------------------------------------------------------------------------------------|
F|-----------------PM-----------------------PM----------------------------PM----------------------------|
C|------------0-0--0-0--0--0-0-----------0-0--0-0--5-7-5-------------0-0--0-0--0--0-5--5-5--7/8-7-7--7-7|
G|------1-----0-0--0-0--0--0-0-----1-----0-0--0-0--5-7-5-------1-----0-0--0-0--0--0-5--5-5--7/8-7-7--7-7|
C|0-1-3---3-1-0-0--0-0--0--0-0-1-3---3-1-0-0--0-0--5-7-5-0-1-3---3-1-0-0--0-0--0--0-5--5-5--7/8-7-7--7-7|

D|------|
A|------|(X2)
F|------|
C|8/10-7|
G|8/10-7|
C|8/10-7|

D|------------------------------------------------------------------------------------------------------|
A|------------------------------------------------------------------------------------------------------|
F|-----------------PM-----------------------PM----------------------------PM----------------------------|
C|------------0-0--0-0--0--0-0-----------0-0--0-0--5-7-5-------------0-0--0-0--0--0-5--5-5--7/8-7-7--7-7|
G|------1-----0-0--0-0--0--0-0-----1-----0-0--0-0--5-7-5-------1-----0-0--0-0--0--0-5--5-5--7/8-7-7--7-7|
C|0-1-3---3-1-0-0--0-0--0--0-0-1-3---3-1-0-0--0-0--5-7-5-0-1-3---3-1-0-0--0-0--0--0-5--5-5--7/8-7-7--7-7|

D|------|
A|------|
F|------|
C|8/10-7|
G|8/10-7|
C|8/10-7|

D|------------------------------------------------------------------------------------------------------|
A|------------------------------------------------------------------------------------------------------|
F|-----------------PM-----------------------PM----------------------------PM----------------------------|
C|------------0-0--0-0--0--0-0-----------0-0--0-0--5-7-5-------------0-0--0-0--0--0-5--5-5--7/8-7-7--7-7|
G|------1-----0-0--0-0--0--0-0-----1-----0-0--0-0--5-7-5-------1-----0-0--0-0--0--0-5--5-5--7/8-7-7--7-7|
C|0-1-3---3-1-0-0--0-0--0--0-0-1-3---3-1-0-0--0-0--5-7-5-0-1-3---3-1-0-0--0-0--0--0-5--5-5--7/8-7-7--7-7|

D|------|
A|------|
F|------|
C|8/10-7|
G|8/10-7|
C|8/10-7|

D|-----------------------------------|
A|-----------------------------------|
F|-----------------------------------|
C|0--0-0-0-0-0-0-0-0-0-0-0-0-0-0-0-0-|
G|0--0-0-0-0-0-0-0-0-0-0-0-0-0-0-0-0-|
C|0--0-0-0-0-0-0-0-0-0-0-0-0-0-0-0-0-|

[Chorus B]
D|--------------------------------|------------------------------------|
A|--------------------------------|(X4)-----------------10---------10--|(X4)
F|------------PM----7----PM----7--|----------------PM----7----PM----7--|
C|5---7h8---0--0--0-0--0--0--0-0-0|----5---7h8---0--0--0-0--0--0--0-0-0|
G|5---7h8---0--0--0-0--0--0--0-0-0|----5---7h8---0--0--0-0--0--0--0-0-0|
C|5---7h8---0--0--0-0--0--0--0-0-0|----5---7h8---0--0--0-0--0--0--0-0-0|

[Verse B]
D|--------------------------------------|
A|--------------------------------------|(X2)
F|--------------------------------------|
C|5----5----8----7----5----5---10----8-7|
G|5----5----8----7----5----5----8----7-7|
C|5----5----8----7----5----5----8----7-7|

D|----------------------------------------------------------------------|
A|----------------------------------------------------------------------|
F|----------------------------------------------------------------------|
C|5-----------------5----------------0----------------10----------------|
G|5--10h12p10-------5-10h12p10-------0-13h15p13-------10-12h13p12-------|
C|5-----------12p10-5----------12p10-0----------15p13-10----------13p12-|

D|-------------------------------------------------------------------------|
A|-------------------------------------------------------------------------|(X3)
F|-------------------------------------------------------------------------|
C|5-----------------5----------------0---(16th notes)----10--(16th notes)--|
G|5--10h12p10-------5-10h12p10-------0-13-15-15-15-15-15-10-12-13-13-13-13-|
C|5-----------12p10-5----------12p10-0-------------------10----------------|

[Chorus C]
D|----------------------------------------------------------------------------------------------------------|
A|----------------------------------------------------------------------------------------------------------|
F|----------------------------------------------------------------------------------------------------------|
C|0--0--0-0--------0---0--0-0--------0--0--0-0--------5----7----0--0--0-0--------0---0--0-0--------0--0--0-0|
G|0--0--0-0--------0---0--0-0--------0--0--0-0--------5----7----0--0--0-0--------0---0--0-0--------0--0--0-0|
C|0--0--0-0--------0---0--0-0--------0--0--0-0--------5----7----0--0--0-0--------0---0--0-0--------0--0--0-0|

D|---------|-----------------------------(Start-Repeat Here)-------------------------------------------------|
A|---------|-------------------------------------------------------------------------------------------------|
F|---------|-------------------------------------------------------------------------------------------------|
C|5----7---|0--0--0-0-----------------------0--0--0-0-------------------------0--0--0-0----------------------|
G|5----7---|0--0--0-0--------8h10p8---------0--0--0-0---------8h10p8-10h12p10-0--0--0-0--------8h10p8-12p10p8|
C|5----7---|0--0--0-0-8h10h12-------12p10p8-0--0--0-0-8h10h12-----------------0--0--0-0-8h10h12--------------|

D|-----------------------------------|
A|-----------------------------------|(X2)
F|-----------------------------------|
C|---(16th notes)------(16th notes)--|
G|--12-13-13-13-13----13-15-15-15-15-|
C|8----------------10----------------|

[Breakdown]
D|--------------------------------------------------------------------|
A|--------------------------------------------------------------------|(X2)
F|--------------------------------------------------------------------|
C|--------------------------------------------------------------------|
G|---7--7--7--7--7---7--7--7--7--7----8--8--8--8--8----10--10-10-10-4-|
C|0----0--0--0--0--8---8--8--8--8---5---5--5--5--5--7-----7--7--7--7--|

D|----------------------------------------------------------------------------------------------------------|
A|----------------------------------------------------------------------------------------------------------|
F|----------------------------------------------------------------------------------------------------------|
C|0--------10----8-7-5----7----0--------8----5----7-------0--0--0-0--0-0--0-0--0-0-8---8-10-10--10-10--10-10|
G|0--------10----8-7-5----7----0--------8----5----7-------0--0--0-0--0-0--0-0--0-0-8---8--8--8---8--8---8--8|
C|0--------10----8-7-5----7----0--------8----5----7-------0--0--0-0--0-0--0-0--0-0-8---8--8--8---8--8---8--8|

D|-----------------------------------------------------------------------------------------------------------|
A|-----------------------------------------------------------------------------------------------------------|
F|-----------------------------------------------------------------------------------------------------------|
C|10-10--7--7--7-7--7-7--7-7--7-7--8-8--8-8--8-8--8-8-1--1-0--0--0-0--0-0--0-0--0-0-8---8-10-10--10-10--10-10|
G|-8--8--5--5--5-5--5-5--5-5--5-5--7-7--7-7--7-7--7-7-1--1-0--0--0-0--0-0--0-0--0-0-8---8--8--8---8--8---8--8|
C|-8--8--5--5--5-5--5-5--5-5--5-5--7-7--7-7--7-7--7-7-1--1-0--0--0-0--0-0--0-0--0-0-8---8--8--8---8--8---8--8|

D|-----------------------------------------------------------|
A|-----------------------------------------------------------|
F|-----------------------------------------------------------|
C|10-10--7--7--7-7--7-7--7-7--7-7--8-8--8-8--8-8--8-8-1--1--1|
G|-8--8--5--5--5-5--5-5--5-5--5-5--7-7--7-7--7-7--7-7-1--1--1|
C|-8--8--5--5--5-5--5-5--5-5--5-5--7-7--7-7--7-7--7-7-1--1--1|

[Outro Solo]
D|------------------------------------------------------------------------------------------------------|
A|------------------------------------------------------------------------------------------------------|
F|-----------------PM-----------------------PM----------------------------PM----------------------------|
C|------------0-0--0-0--0--0-0-----------0-0--0-0--5-7-5-------------0-0--0-0--0--0-5--5-5--7/8-7-7--7-7|
G|------1-----0-0--0-0--0--0-0-----1-----0-0--0-0--5-7-5-------1-----0-0--0-0--0--0-5--5-5--7/8-7-7--7-7|
C|0-1-3---3-1-0-0--0-0--0--0-0-1-3---3-1-0-0--0-0--5-7-5-0-1-3---3-1-0-0--0-0--0--0-5--5-5--7/8-7-7--7-7|

D|------|
A|------|(X4)
F|------|
C|8/10-7|
G|8/10-7|
C|8/10-7|

D|---------------------------------------------(Repeat This X2)---------------8h10-12-10-13-10-13h15-13-12-10|
A|------------------------------------------------------------------------8h10-------------------------------|
F|-----------------------------------------------------------------------------------------------------------|
C|5------------5-------------------------------------------5-----------5-------------------------------------|
G|5--7h8-8-8-8-5--7p5-5-5-5------5-------5-------4-5-7-5-4-5-7h8-8-8-8-5-------------------------------------|
C|5------------5------------8--8---8-8-8---7-7-7-----------5-----------5-------------------------------------|

D|--------------------------------------------------------------------|
A|--------------------------------------------------------------------|
F|--------------------------------------------------------------------|
C|--------------------------------------------------------------------|
G|---7--7--7--7--7---7--7--7--7--7----8--8--8--8--8----10--10-10-10-4-|
C|0----0--0--0--0--8---8--8--8--8---5---5--5--5--5--7-----7--7--7--7--|

D|---------------------------------------------------------------------------|
A|---------------------------------------------------------------------------|
F|---------------------------------------------------------------------------|
C|---------------------------------------------------------------------------|
G|---7--7--7--7--7----7--7--7--7--7--------8--8--8--8--8----10--10-10-10-4---|
C|0----0--0--0--0--10--10-10-10-10--8-7-5---5--5--5--5--7-----7--7--7--7-----|

D|------------------------------------------------------------------------|
A|------------------------------------------------------------------------|
F|------------------------------------------------------------------------|
C|0-0-0-0-0-0-0-0-10-10-10-10-10-10-10-10-7-7-7-7-7-7-7-7-8-8-8-8-8-8-8-8-|
G|0-0-0-0-0-0-0-0-8--8--8--8--8--8--8--8--5-5-5-5-5-5-5-5-7-7-7-7-7-7-7-7-|
C|0-0-0-0-0-0-0-0-8--8--8--8--8--8--8--8--5-5-5-5-5-5-5-5-7-7-7-7-7-7-7-7-|

D|------------------------------------------------------------------------|
A|------------------------------------------------------------------------|(X3)
F|------------------------------------------------------------------------|
C|0-0-0-0-5-5-5-5-10-10-10-10-10-10-10-10-7-7-7-7-7-7-7-7-8-8-8-8-8-8-8-8-|
G|0-0-0-0-3-3-3-3-8--8--8--8--8--8--8--8--5-5-5-5-5-5-5-5-7-7-7-7-7-7-7-7-|
C|0-0-0-0-3-3-3-3-8--8--8--8--8--8--8--8--5-5-5-5-5-5-5-5-7-7-7-7-7-7-7-7-|

D|-------------------------|
A|-------------------------|
F|-------------------------|
C|0--0--0--0-0--0--0--0----|
G|0--0--0--0-0--0--0--0----|
C|0--0--0--0-0--0--0--0----|



************************************

| h  Hammer-on
| p  Pull-off
| /  Slide up
| \  Slide down 

************************************

            
            
Suggest correction
Creating personal tab
Creating personal tab
You can edit any tab online and save it as your Personal.

You can edit, replace or remove any tab part or add personal notes – all changes will be seen only by you.

Personal tabs can be accessed anytime from any device, even offline.
Learn more »
Give kudos to tab author, rate the tab!
1 2 3 4 5
comments
print report bad tab
guest
You may want to rate the tab now too:
select rating
Wanna post a correction for this tab? Suggest correction