Oops, an error
Loading. Please wait.

The Man Bass Tab

1 view 1 this week
no commentswrite comment
1 2 3 4 5
3 more votes to show rating
add to favorites
launch autoscroll
font size
0
reset
guitar tuner
Autoscroll
slow
fast
+/-
esc
set tempo
stop
Help us to improve Ultimate-Guitar.com Take our survey!
×
Author
Difficulty
Tuning
intermediate
D A D G B E
About this tab version
Its an original of our song. Was this info helpful? Yes No
[Verse]

G|--------------------------------------------------------------------------------------------|
D|--------------------------------------------------------------------------------------------|
A|--------------------------------------------------------------------------------------------|
D|0---6--5--3--0----0-0--0-0---0-0---3-5-0----6--5--3--0----0-0--0-0---0-0---3-5-0----6--5--3-|
A|--------------------------------------------------------------------------------------------|

G|-----------------------------------------------------------------------------------------------------------|
D|-----------------------------------------------------------------------------------------------------------|
A|--------------------------------------------------------------------(16th notes)---------------------------|
D|0----0-0--0-0---0-0---3-5-0----6--5--3--0----0-0--0-0---0-0--3-5-3--3-3-3-3-3-3-3-3-3-3-3-3-3-3-5--5-5-5-5-|
A|-----------------------------------------------------------------------------------------------------------|

G|--------------------|
D|--------------------|
A|5-5-5-5-5-5-5-6-6-6-|
D|--------------------|
A|--------------------|


[Pre Chorus]

G|-----------------------------------------------------------------------------------------------------------|
D|-----------------------------------------------------------------------------------------------------------|
A|----------------------5--5-----5-5-----------------------5--5-----5-5-----------------------5--5-----5-5---|
D|0---6--5--3--0--0-0-0--0---0-0-----0---6--5--3--0--0-0-0--0---0-0-----0---6--5--3--0--0-0-0--0---0-0-------|
A|-----------------------------------------------------------------------------------------------------------|

G|------------------------------------------------------------------------------|
D|-------------------------------5-------3--------------3--------------3--------|
A|----------------------5--5-3h5--3----5--------------5--------------5----------|
D|0---6--5--3--0--0-0-0--0-----------0-----6--5--3--0-----6--5--3--0-----6--5--3|
A|------------------------------------------------------------------------------|

G|------------------------------|
D|------------------------------|
A|---------------------------3h5|
D|0--0-0-0-0-0-0--0--0-0-3h5----|
A|------------------------------|

[Chorus]

G|--------------------------------------------------------------------------------------|
D|--------------------------------------------------------------------------------------|
A|---------0------0-------------3------3-------------5------5-------------1------1h3-3--|
D|0--0-0-0---0--0---0--3--3-3-3---3--3---3--5--5-5-5---5--5---5--1--1-1-1---1--1--------|
A|--------------------------------------------------------------------------------------|

G|---------------------------------------------------------------------------------------|
D|---------------------------------------------------------------------------------------|
A|---------0------0-------------3------3-------------5------5-------------0---0h1-0--0---|
D|0--0-0-0---0--0---0--3--3-3-3---3--3---3--5--5-5-5---5--5---5--0--0-0-0---0------------|
A|---------------------------------------------------------------------------------------|

[Intro 2]

G|-----------------------------------------------------------------------------|
D|----3---------------------------------------3--------------------------------|
A|--5---------------------------------------5----------------------------------|
D|0-----6--5--3--0---0-0--0-0---0-0---3-5-0-----6--5--3--0---0-0--0-0--0-0-----|
A|-------------------------------------------------------------------------3--3|

[Verse 2]

G|--------------------------------------------------------------------------------------------|
D|--------------------------------------------------------------------------------------------|
A|--------------------------------------------------------------------------------------------|
D|0---6--5--3--0----0-0--0-0---0-0---3-5-0----6--5--3--0----0-0--0-0---0-0---3-5-0----6--5--3-|
A|--------------------------------------------------------------------------------------------|

G|----------------------------------------------------------------------------------------------------|
D|----------------------------------------------------------------------------------------------------|
A|--------------------------------------------------------------------(16th notes)--------------------|
D|0----0-0--0-0---0-0---3-5-0----6--5--3p0-3-3-3-3-3-3-3-3-3-3-3-3-3-3-5--5-5-5-5-5-5-5-5-5-5-5-5-5-5-|
A|----------------------------------------------------------------------------------------------------|

[Pre Chorus 2]

G|--------------------------------------------------------------------------------------------------------|
D|-----------------------------------------------------------------------------------------------------5--|
A|----------------------5--5-----5-5-----------------------5--5-----5-5-----------------------5--5-3h5---3|
D|0---6--5--3--0--0-0-0--0---0-0-----0---6--5--3--0--0-0-0--0---0-0-----0---6--5--3--0--0-0-0--0----------|
A|--------------------------------------------------------------------------------------------------------|

G|------------------------------------------------------------------------------|
D|-------------------------------3h5-----3--------------3--------------3--------|
A|----------------------5--5-3h5-------5--------------5--------------5----------|
D|0---6--5--3--0--0-0-0--0-----------0-----6--5--3--0-----6--5--3--0-----6--5--3|
A|------------------------------------------------------------------------------|

G|------------------------------|
D|------------------------------|
A|---------------------------3--|
D|0--0-0-0-0-0-0--0--0-0-3h5--5-|
A|------------------------------|

[Chorus 2]

G|--------------------------------------------------------------------------------------|
D|--------------------------------------------------------------------------------------|
A|---------0------0-------------3------3-------------5------5-------------1------1h3-3--|
D|0--0-0-0---0--0---0--3--3-3-3---3--3---3--5--5-5-5---5--5---5--1--1-1-1---1--1--------|
A|--------------------------------------------------------------------------------------|

G|---------------------------------------------------------------------------------------|
D|---------------------------------------------------------------------------------------|(X2)
A|---------0------0-------------3------3-------------5------5-------------0---0h1-0--0---|
D|0--0-0-0---0--0---0--3--3-3-3---3--3---3--5--5-5-5---5--5---5--0--0-0-0---0------------|
A|---------------------------------------------------------------------------------------|

[Interlude]

G|----------------------------------------------------------------------------------------------|
D|---------------------3--------------3--------------3------------------------------------------|
A|-------------------5--------------5--------------5---------------------------------------3h5--|
D|0--------0-------0-----6--5--3--0-----6--5--3--0-----6--5--3--0--0-0-0-0-0-0--0--0-0-3h5------|
A|----------------------------------------------------------------------------------------------|

[Solo]

G|-----------------------------------------------------------------------------------------------------------|
D|-----------------------------------------------------------------------------------------------------------|
A|----------------------5--5-----5-5-----------------------5--5-----5-5-----------------------5--5-----5-5---|
D|0---6--5--3--0--0-0-0--0---0-0-----0---6--5--3--0--0-0-0--0---0-0-----0---6--5--3--0--0-0-0--0---0-0-------|
A|-----------------------------------------------------------------------------------------------------------|

G|-----------------------------------------------------------------------------------------------------------|
D|------------------------------5----------------------------------------------------------------------------|
A|---------------------5--5-3h5--3-------------------------------------------------------------------------3h5
D|0--6--5--3--0--0-0-0--0-----------0---3-6--5--3--0---3-6--5-----0---3-6--5-----0--0-0-0-0-0-0--0--0-0-3h5--|
A|------------------------------------5--------------5--------3-1---5--------3-4-----------------------------|

G|--------------------------------------------------------------------------------------|
D|--------------------------------------------------------------------------------------|
A|---------0------0-------------3------3-------------5------5-------------1------1h3-3--|
D|0--0-0-0---0--0---0--3--3-3-3---3--3---3--5--5-5-5---5--5---5--1--1-1-1---1--1--------|
A|--------------------------------------------------------------------------------------|

G|---------------------------------------------------------------------------------------|
D|---------------------------------------------------------------------------------------|
A|---------0------0-------------3------3-------------5------5-------------0---0h1-0--0---|
D|0--0-0-0---0--0---0--3--3-3-3---3--3---3--5--5-5-5---5--5---5--0--0-0-0---0------------|
A|---------------------------------------------------------------------------------------|

Final Chorus

G|--------------------------------------------------------------------------------------|
D|--------------------------------------------------------------------------------------|
A|---------0------0-------------3------3-------------5------5-------------1------1h3-3--|
D|0--0-0-0---0--0---0--3--3-3-3---3--3---3--5--5-5-5---5--5---5--1--1-1-1---1--1--------|
A|--------------------------------------------------------------------------------------|

G|---------------------------------------------------------------------------------------|
D|---------------------------------------------------------------------------------------|
A|---------0------0-------------3------3-------------5------5-------------0---0h1-0--0---|
D|0--0-0-0---0--0---0--3--3-3-3---3--3---3--5--5-5-5---5--5---5--0--0-0-0---0------------|
A|---------------------------------------------------------------------------------------|

[Outro]

G|---------------------------------------------------------------------------|
D|-------------------3--------------3----------------------------------------|
A|-----------------5--------------5--------------------------------------3h5-|
D|0-----6--5--3--0-----6--5--3--0-----6--5--3--0--0-0-0-0-0-0--0--0-0-3h5----|
A|---------------------------------------------------------------------------|

G|----------------------------------------------------------------------------|
D|----3--------------3--------------3-----------------------------------------|
A|--5--------------5--------------5--------------------------------------3h5--|
D|0-----6--5--3--0-----6--5--3--0-----6--5--3--0--0-0-0-0-0-0--0--0-0-3h5----0|
A|----------------------------------------------------------------------------|






************************************

| x   Dead note
| g   Grace note
| (n) Ghost note
| h   Hammer-on
| p   Pull-off
| r   Release
| >   Accented note
| t   Tapping
| b   Bend
| br  Bend release
| pb  Pre-bend
| pbr Pre-bend release
| /   Slide up
| \   Slide down
| ~   Vibrato
| s   Slap
| P   Pop
| PM  Palm mute
| TR  Trill
| N   Tremolo

************************************
Suggest correction
Give kudos to tab author, rate the tab!
1 2 3 4 5
comments
print report bad tab
guest
You may want to rate the tab now too:
select rating
Wanna post a correction for this tab? Suggest correction