Oops, an error
Loading. Please wait.

The Man Tab

4 views 1 this week
no commentswrite comment
1 2 3 4 5
3 more votes to show rating
add to favorites
launch autoscroll
font size
0
reset
how to read this tab
guitar tuner
Autoscroll
slow
fast
+/-
esc
set tempo
stop
Help us to improve Ultimate-Guitar.com Take our survey!
×
Author
Difficulty
Tuning
intermediate
D A D G B E
About this tab version
Its an original of our song. Was this info helpful? Yes No
[Intro]

e|-----------------------------------------------------------------------------|
B|-----------------------------------------------------------------------------|
G|-----------------------------------------------------------------------------|
D|-----------------------------------------------------------------------------|
A|-----------------------------------------------------------------------------|
D|0---6--5--3--0----0-0--0-0---0-0----0---6--5--3--0----0-0--0-0---0-0---3-5-0-|


[Verse]

e|--------------------------------------------|
B|--------------------------------------------|(X3)
G|--------------------------------------------|
D|----3---------------------------------------|
A|--5-----------------------------------------|
D|0-----6--5--3--0----0-0--0-0---0-0---3-5-0--|

e|--------------------------------------------------------------------------|
B|--------------------------------------------------------------------------|
G|-----------------------------------------PM----------(16th notes)---------|
D|----3------------------------------------3--3-3-3-3-3-3-3-3-3-3-3-3-3-3-5-|
A|--5--------------------------------------3--3-3-3-3-3-3-3-3-3-3-3-3-3-3-5-|
D|0-----6--5--3--0----0-0--0-0---0-0---3-5-3--3-3-3-3-3-3-3-3-3-3-3-3-3-3-5-|

e|----------------------------|
B|----------------------------|
G|----------------------------|
D|5-5-5-5-5-5-5-5-5-5-5-6-6-6-|
A|5-5-5-5-5-5-5-5-5-5-5-6-6-6-|
D|5-5-5-5-5-5-5-5-5-5-5-6-6-6-|


[Pre-Chorus]

e|---------------------------------------|
B|-------------------------3---3-----3-3-|(X4)
G|-------------------------2---2-----2-2-|
D|0-----6--5--3--0---0-0-0---0---0-0-----|
A|0-----6--5--3--0---0-0-0---0---0-0-----|
D|0-----6--5--3--0---0-0-0---0---0-0-----|

e|-------------------------------------------------------------------------|
B|-------------------------------------------------------------------------|
G|-------------------------------------------------------------------------|
D|----3-6--5--3-----3-6--5--3-----3-6--5--3--0--0-0-0-0-0-0--0--0-0--------|
A|--5---6--5--3---5---6--5--3---5---6--5--3--0--0-0-0-0-0-0--0--0-0----3h5-|
D|0-----6--5--3-0-----6--5--3-0-----6--5--3--0--0-0-0-0-0-0--0--0-0-3h5----|


[Chorus]

e|----------------------------------------------------------------------------------|
B|---------3---3-----3----------6---6---6-----------8---8---8-----------4---4--3--3-|
G|---------2---2-----2----------5---5---5-----------7---7---7-----------3---3--2--2-|
D|0--0-0-0---0---0-0---3--3-3-3---3---3----5--5-5-5---5---5----1--1-1-1---1---------|
A|0--0-0-0---0---0-0---3--3-3-3---3---3----5--5-5-5---5---5----1--1-1-1---1---------|
D|0--0-0-0---0---0-0---3--3-3-3---3---3----5--5-5-5---5---5----1--1-1-1---1---------|

e|----------------------------------------------------------------------------------|
B|---------3---3-----3----------6---6---6-----------8---8---8----------10--10-10-10-|
G|---------2---2-----2----------5---5---5-----------7---7---7-----------9---9--9--9-|
D|0--0-0-0---0---0-0---3--3-3-3---3---3----5--5-5-5---5---5----0--0-0-0---0---------|
A|0--0-0-0---0---0-0---3--3-3-3---3---3----5--5-5-5---5---5----0--0-0-0---0---------|
D|0--0-0-0---0---0-0---3--3-3-3---3---3----5--5-5-5---5---5----0--0-0-0---0---------|


[Interlude]

e|-------------------------------------------------------------------------|
B|-----------------------3---3-----3-3------------------------3---3--------|
G|-----------------------2---2-----2-2------------------------2---2--------|
D|----3------------------------------------3-------------------------------|
A|--5------------------------------------5---------------------------*3----|
D|0-----6--5--3-0--0-0-0---0---0-0-----0-----6--5--3-0--0-0-0---0----------|


[Verse 2]

e|--------------------------------------------|
B|--------------------------------------------|(X3)
G|--------------------------------------------|
D|----3---------------------------------------|
A|--5-----------------------------------------|
D|0-----6--5--3--0----0-0--0-0---0-0---3-5-0--|

e|--------------------------------------------------------------------------------|
B|--------------------------------------------------------------------------------|
G|-------------------PM----------(16th notes)-------------------------------------|
D|----3--------------3--3-3-3-3-3-3-3-3-3-3-3-3-3-3-5--5-5-5-5-5-5-5-5-5-5-5-5-5-5|
A|--5----------------3--3-3-3-3-3-3-3-3-3-3-3-3-3-3-5--5-5-5-5-5-5-5-5-5-5-5-5-5-5|
D|0-----6--5--3p0h3--3--3-3-3-3-3-3-3-3-3-3-3-3-3-3-5--5-5-5-5-5-5-5-5-5-5-5-5-5-5|


[Pre-Chorus 2]

e|---------------------------------------|
B|-------------------------3---3-----3-3-|(X4)
G|-------------------------2---2-----2-2-|
D|0-----6--5--3--0---0-0-0---0---0-0-----|
A|0-----6--5--3--0---0-0-0---0---0-0-----|
D|0-----6--5--3--0---0-0-0---0---0-0-----|

e|-------------------------------------------------------------------------|
B|-------------------------------------------------------------------------|
G|-------------------------------------------------------------------------|
D|----3-6--5--3-----3-6--5--3-----3-6--5--3--0--0-0-0-0-0-0--0--0-0--------|
A|--5---6--5--3---5---6--5--3---5---6--5--3--0--0-0-0-0-0-0--0--0-0----3---|
D|0-----6--5--3-0-----6--5--3-0-----6--5--3--0--0-0-0-0-0-0--0--0-0-3h5--5-|


[Chorus 2]

e|----------------------------------------------------------------------------------|
B|---------3---3-----3----------6---6---6-----------8---8---8-----------4---4--3--3-|<--- Start 
G|---------2---2-----2----------5---5---5-----------7---7---7-----------3---3--2--2-|  Repeat Here
D|0--0-0-0---0---0-0---3--3-3-3---3---3----5--5-5-5---5---5----1--1-1-1---1---------|
A|0--0-0-0---0---0-0---3--3-3-3---3---3----5--5-5-5---5---5----1--1-1-1---1---------|
D|0--0-0-0---0---0-0---3--3-3-3---3---3----5--5-5-5---5---5----1--1-1-1---1---------|

e|----------------------------------------------------------------------------------|
B|---------3---3-----3----------6---6---6-----------8---8---8----------10--10-10-10-|(X2)
G|---------2---2-----2----------5---5---5-----------7---7---7-----------9---9--9--9-|
D|0--0-0-0---0---0-0---3--3-3-3---3---3----5--5-5-5---5---5----0--0-0-0---0---------|
A|0--0-0-0---0---0-0---3--3-3-3---3---3----5--5-5-5---5---5----0--0-0-0---0---------|
D|0--0-0-0---0---0-0---3--3-3-3---3---3----5--5-5-5---5---5----0--0-0-0---0---------|


[Breakdown]

e|------------------------------------------------------------------------|
B|------------------------------------------------------------------------|(X2)
G|------------------------------------------------------------------------|
D|----3-------------3-------------3---------0--0-0-0-0-0-0--0--0-0--------|
A|--5-------------5-------------5-----------0--0-0-0-0-0-0--0--0-0----3h5-|
D|0-----6--5--3-0-----6--5--3-0-----6--5--3-0--0-0-0-0-0-0--0--0-0-3h5----|


[Solo]

e|-------------------------------------|
B|-------------------------3---3--3--3-|(X4)
G|-------------------------2---2--2--2-|
D|0-----6--5--3--0---0-0-0---0---------|
A|0-----6--5--3--0---0-0-0---0---------|
D|0-----6--5--3--0---0-0-0---0---------|

e|-------------------------------------------------------------------------|
B|-------------------------------------------------------------------------|
G|-------------------------------------------------------------------------|
D|----3-6--5--3-----3-6--5--3-----3-6--5--3--0--0-0-0-0-0-0--0--0-0--------|
A|--5---6--5--3---5---6--5--3---5---6--5--3--0--0-0-0-0-0-0--0--0-0----3h5-|
D|0-----6--5--3-0-----6--5--3-0-----6--5--3--0--0-0-0-0-0-0--0--0-0-3h5----|

e|----------------------------------------------------------------------------------|
B|---------3---3-----3----------6---6---6-----------8---8---8-----------4---4--3--3-|
G|---------2---2-----2----------5---5---5-----------7---7---7-----------3---3--2--2-|
D|0--0-0-0---0---0-0---3--3-3-3---3---3----5--5-5-5---5---5----1--1-1-1---1---------|
A|0--0-0-0---0---0-0---3--3-3-3---3---3----5--5-5-5---5---5----1--1-1-1---1---------|
D|0--0-0-0---0---0-0---3--3-3-3---3---3----5--5-5-5---5---5----1--1-1-1---1---------|

e|----------------------------------------------------------------------------------|
B|---------3---3-----3----------6---6---6-----------8---8---8----------10--10-10-10-|
G|---------2---2-----2----------5---5---5-----------7---7---7-----------9---9--9--9-|
D|0--0-0-0---0---0-0---3--3-3-3---3---3----5--5-5-5---5---5----0--0-0-0---0---------|
A|0--0-0-0---0---0-0---3--3-3-3---3---3----5--5-5-5---5---5----0--0-0-0---0---------|
D|0--0-0-0---0---0-0---3--3-3-3---3---3----5--5-5-5---5---5----0--0-0-0---0---------|


[Final Chorus]

e|----------------------------------------------------------------------------------|
B|---------3---3-----3----------6---6---6-----------8---8---8-----------4---4--3--3-|
G|---------2---2-----2----------5---5---5-----------7---7---7-----------3---3--2--2-|
D|0--0-0-0---0---0-0---3--3-3-3---3---3----5--5-5-5---5---5----1--1-1-1---1---------|
A|0--0-0-0---0---0-0---3--3-3-3---3---3----5--5-5-5---5---5----1--1-1-1---1---------|
D|0--0-0-0---0---0-0---3--3-3-3---3---3----5--5-5-5---5---5----1--1-1-1---1---------|

e|----------------------------------------------------------------------------------|
B|---------3---3-----3----------6---6---6-----------8---8---8----------10--10-10-10-|
G|---------2---2-----2----------5---5---5-----------7---7---7-----------9---9--9--9-|
D|0--0-0-0---0---0-0---3--3-3-3---3---3----5--5-5-5---5---5----0--0-0-0---0---------|
A|0--0-0-0---0---0-0---3--3-3-3---3---3----5--5-5-5---5---5----0--0-0-0---0---------|
D|0--0-0-0---0---0-0---3--3-3-3---3---3----5--5-5-5---5---5----0--0-0-0---0---------|


[Outro]

e|-------------------------------------------------------------------------|
B|-------------------------------------------------------------------------|
G|-------------------------------------------------------------------------|
D|----3-6--5--3-----3-6--5--3-----3-6--5--3--0--0-0-0-0-0-0--0--0-0--------|
A|--5---6--5--3---5---6--5--3---5---6--5--3--0--0-0-0-0-0-0--0--0-0----3h5-|
D|0-----6--5--3-0-----6--5--3-0-----6--5--3--0--0-0-0-0-0-0--0--0-0-3h5----|


e|-----------------------------------------------------------------------------|
B|-----------------------------------------------------------------------------|
G|-----------------------------------------------------------------------------|
D|----3-6--5--3-----3-6--5--3-----3-6--5--3--0--0-0-0-0-0-0--0--0-0---------0--|
A|--5---6--5--3---5---6--5--3---5---6--5--3--0--0-0-0-0-0-0--0--0-0----3h5--0--|
D|0-----6--5--3-0-----6--5--3-0-----6--5--3--0--0-0-0-0-0-0--0--0-0-3h5-----0--|



************************************

| h  Hammer-on
| p  Pull-off

************************************
Suggest correction
Give kudos to tab author, rate the tab!
1 2 3 4 5
comments
print report bad tab
guest
You may want to rate the tab now too:
select rating
Wanna post a correction for this tab? Suggest correction